  0
SECTION
  2
HEADER
  9
$ACADVER
  1
AC1018
  9
$ACADMAINTVER
 70
     0
  9
$DWGCODEPAGE
  3
ANSI_1250
  9
$INSBASE
 10
0.0
 20
0.0
 30
0.0
  9
$EXTMIN
 10
1.000000000000000E+20
 20
1.000000000000000E+20
 30
1.000000000000000E+20
  9
$EXTMAX
 10
-1.000000000000000E+20
 20
-1.000000000000000E+20
 30
-1.000000000000000E+20
  9
$LIMMIN
 10
0.0
 20
0.0
  9
$LIMMAX
 10
12.0
 20
9.0
  9
$ORTHOMODE
 70
     0
  9
$REGENMODE
 70
     1
  9
$FILLMODE
 70
     1
  9
$QTEXTMODE
 70
     0
  9
$MIRRTEXT
 70
     1
  9
$LTSCALE
 40
1.0
  9
$ATTMODE
 70
     1
  9
$TEXTSIZE
 40
0.2
  9
$TRACEWID
 40
0.05
  9
$TEXTSTYLE
  7
Standard
  9
$CLAYER
  8
0
  9
$CELTYPE
  6
ByLayer
  9
$CECOLOR
 62
   256
  9
$CELTSCALE
 40
1.0
  9
$DISPSILH
 70
     0
  9
$DIMSCALE
 40
1.0
  9
$DIMASZ
 40
0.18
  9
$DIMEXO
 40
0.0625
  9
$DIMDLI
 40
0.38
  9
$DIMRND
 40
0.0
  9
$DIMDLE
 40
0.0
  9
$DIMEXE
 40
0.18
  9
$DIMTP
 40
0.0
  9
$DIMTM
 40
0.0
  9
$DIMTXT
 40
0.18
  9
$DIMCEN
 40
0.09
  9
$DIMTSZ
 40
0.0
  9
$DIMTOL
 70
     0
  9
$DIMLIM
 70
     0
  9
$DIMTIH
 70
     1
  9
$DIMTOH
 70
     1
  9
$DIMSE1
 70
     0
  9
$DIMSE2
 70
     0
  9
$DIMTAD
 70
     0
  9
$DIMZIN
 70
     0
  9
$DIMBLK
  1

  9
$DIMASO
 70
     1
  9
$DIMSHO
 70
     1
  9
$DIMPOST
  1

  9
$DIMAPOST
  1

  9
$DIMALT
 70
     0
  9
$DIMALTD
 70
     2
  9
$DIMALTF
 40
25.4
  9
$DIMLFAC
 40
1.0
  9
$DIMTOFL
 70
     0
  9
$DIMTVP
 40
0.0
  9
$DIMTIX
 70
     0
  9
$DIMSOXD
 70
     0
  9
$DIMSAH
 70
     0
  9
$DIMBLK1
  1

  9
$DIMBLK2
  1

  9
$DIMSTYLE
  2
Standard
  9
$DIMCLRD
 70
     0
  9
$DIMCLRE
 70
     0
  9
$DIMCLRT
 70
     0
  9
$DIMTFAC
 40
1.0
  9
$DIMGAP
 40
0.09
  9
$DIMJUST
 70
     0
  9
$DIMSD1
 70
     0
  9
$DIMSD2
 70
     0
  9
$DIMTOLJ
 70
     1
  9
$DIMTZIN
 70
     0
  9
$DIMALTZ
 70
     0
  9
$DIMALTTZ
 70
     0
  9
$DIMUPT
 70
     0
  9
$DIMDEC
 70
     4
  9
$DIMTDEC
 70
     4
  9
$DIMALTU
 70
     2
  9
$DIMALTTD
 70
     2
  9
$DIMTXSTY
  7
Standard
  9
$DIMAUNIT
 70
     0
  9
$DIMADEC
 70
     0
  9
$DIMALTRND
 40
0.0
  9
$DIMAZIN
 70
     0
  9
$DIMDSEP
 70
    46
  9
$DIMATFIT
 70
     3
  9
$DIMFRAC
 70
     0
  9
$DIMLDRBLK
  1

  9
$DIMLUNIT
 70
     2
  9
$DIMLWD
 70
    -2
  9
$DIMLWE
 70
    -2
  9
$DIMTMOVE
 70
     0
  9
$LUNITS
 70
     2
  9
$LUPREC
 70
     4
  9
$SKETCHINC
 40
0.1
  9
$FILLETRAD
 40
0.5
  9
$AUNITS
 70
     0
  9
$AUPREC
 70
     0
  9
$MENU
  1
.
  9
$ELEVATION
 40
0.0
  9
$PELEVATION
 40
0.0
  9
$THICKNESS
 40
0.0
  9
$LIMCHECK
 70
     0
  9
$CHAMFERA
 40
0.5
  9
$CHAMFERB
 40
0.5
  9
$CHAMFERC
 40
1.0
  9
$CHAMFERD
 40
0.0
  9
$SKPOLY
 70
     0
  9
$TDCREATE
 40
2456722.475064155
  9
$TDUCREATE
 40
2456722.433397488
  9
$TDUPDATE
 40
2456722.475064167
  9
$TDUUPDATE
 40
2456722.4333975
  9
$TDINDWG
 40
0.0000000116
  9
$TDUSRTIMER
 40
0.0000000116
  9
$USRTIMER
 70
     1
  9
$ANGBASE
 50
0.0
  9
$ANGDIR
 70
     0
  9
$PDMODE
 70
     0
  9
$PDSIZE
 40
0.0
  9
$PLINEWID
 40
0.0
  9
$SPLFRAME
 70
     0
  9
$SPLINETYPE
 70
     6
  9
$SPLINESEGS
 70
     8
  9
$HANDSEED
  5
CE
  9
$SURFTAB1
 70
     6
  9
$SURFTAB2
 70
     6
  9
$SURFTYPE
 70
     6
  9
$SURFU
 70
     6
  9
$SURFV
 70
     6
  9
$UCSBASE
  2

  9
$UCSNAME
  2

  9
$UCSORG
 10
0.0
 20
0.0
 30
0.0
  9
$UCSXDIR
 10
1.0
 20
0.0
 30
0.0
  9
$UCSYDIR
 10
0.0
 20
1.0
 30
0.0
  9
$UCSORTHOREF
  2

  9
$UCSORTHOVIEW
 70
     0
  9
$UCSORGTOP
 10
0.0
 20
0.0
 30
0.0
  9
$UCSORGBOTTOM
 10
0.0
 20
0.0
 30
0.0
  9
$UCSORGLEFT
 10
0.0
 20
0.0
 30
0.0
  9
$UCSORGRIGHT
 10
0.0
 20
0.0
 30
0.0
  9
$UCSORGFRONT
 10
0.0
 20
0.0
 30
0.0
  9
$UCSORGBACK
 10
0.0
 20
0.0
 30
0.0
  9
$PUCSBASE
  2

  9
$PUCSNAME
  2

  9
$PUCSORG
 10
0.0
 20
0.0
 30
0.0
  9
$PUCSXDIR
 10
1.0
 20
0.0
 30
0.0
  9
$PUCSYDIR
 10
0.0
 20
1.0
 30
0.0
  9
$PUCSORTHOREF
  2

  9
$PUCSORTHOVIEW
 70
     0
  9
$PUCSORGTOP
 10
0.0
 20
0.0
 30
0.0
  9
$PUCSORGBOTTOM
 10
0.0
 20
0.0
 30
0.0
  9
$PUCSORGLEFT
 10
0.0
 20
0.0
 30
0.0
  9
$PUCSORGRIGHT
 10
0.0
 20
0.0
 30
0.0
  9
$PUCSORGFRONT
 10
0.0
 20
0.0
 30
0.0
  9
$PUCSORGBACK
 10
0.0
 20
0.0
 30
0.0
  9
$USERI1
 70
     0
  9
$USERI2
 70
     0
  9
$USERI3
 70
     0
  9
$USERI4
 70
     0
  9
$USERI5
 70
     0
  9
$USERR1
 40
0.0
  9
$USERR2
 40
0.0
  9
$USERR3
 40
0.0
  9
$USERR4
 40
0.0
  9
$USERR5
 40
0.0
  9
$WORLDVIEW
 70
     1
  9
$SHADEDGE
 70
     3
  9
$SHADEDIF
 70
    70
  9
$TILEMODE
 70
     1
  9
$MAXACTVP
 70
    64
  9
$PINSBASE
 10
0.0
 20
0.0
 30
0.0
  9
$PLIMCHECK
 70
     0
  9
$PEXTMIN
 10
1.000000000000000E+20
 20
1.000000000000000E+20
 30
1.000000000000000E+20
  9
$PEXTMAX
 10
-1.000000000000000E+20
 20
-1.000000000000000E+20
 30
-1.000000000000000E+20
  9
$PLIMMIN
 10
0.0
 20
0.0
  9
$PLIMMAX
 10
12.0
 20
9.0
  9
$UNITMODE
 70
     0
  9
$VISRETAIN
 70
     1
  9
$PLINEGEN
 70
     0
  9
$PSLTSCALE
 70
     1
  9
$TREEDEPTH
 70
  3020
  9
$CMLSTYLE
  2
Standard
  9
$CMLJUST
 70
     0
  9
$CMLSCALE
 40
1.0
  9
$PROXYGRAPHICS
 70
     1
  9
$MEASUREMENT
 70
     0
  9
$CELWEIGHT
370
    -1
  9
$ENDCAPS
280
     0
  9
$JOINSTYLE
280
     0
  9
$LWDISPLAY
290
     1
  9
$INSUNITS
 70
     1
  9
$HYPERLINKBASE
  1

  9
$STYLESHEET
  1

  9
$XEDIT
290
     1
  9
$CEPSNTYPE
380
     0
  9
$PSTYLEMODE
290
     1
  9
$FINGERPRINTGUID
  2
{22C202DA-5E93-4893-837B-2E7ABD60197D}
  9
$VERSIONGUID
  2
{FAEB1C32-E019-11D5-929B-00C0DF256EC4}
  9
$EXTNAMES
290
     1
  9
$PSVPSCALE
 40
0.0
  9
$OLESTARTUP
290
     0
  9
$SORTENTS
280
   127
  9
$INDEXCTL
280
     0
  9
$HIDETEXT
280
     1
  9
$XCLIPFRAME
290
     0
  9
$HALOGAP
280
     0
  9
$OBSCOLOR
 70
   257
  9
$OBSLTYPE
280
     0
  9
$INTERSECTIONDISPLAY
280
     0
  9
$INTERSECTIONCOLOR
 70
   257
  9
$DIMASSOC
280
     2
  9
$PROJECTNAME
  1

  0
ENDSEC
  0
SECTION
  2
CLASSES
  0
CLASS
  1
ACDBDICTIONARYWDFLT
  2
AcDbDictionaryWithDefault
  3
ObjectDBX Classes
 90
        0
 91
        3
280
     0
281
     0
  0
CLASS
  1
VISUALSTYLE
  2
AcDbVisualStyle
  3
ObjectDBX Classes
 90
     4095
 91
        3
280
     0
281
     0
  0
ENDSEC
  0
SECTION
  2
TABLES
  0
TABLE
  2
VPORT
  5
8
330
0
100
AcDbSymbolTable
 70
     1
  0
VPORT
  5
29
330
8
100
AcDbSymbolTableRecord
100
AcDbViewportTableRecord
  2
*Active
 70
     0
 10
0.0
 20
0.0
 11
1.0
 21
1.0
 12
0.0
 22
0.0
 13
0.0
 23
0.0
 14
0.5
 24
0.5
 15
0.5
 25
0.5
 16
0.0
 26
0.0
 36
1.0
 17
306.6376953125
 27
218.763671875
 37
0.0
 40
437.52734375
 41
1.401684716133813
 42
50.0
 43
0.0
 44
0.0
 50
0.0
 51
0.0
 71
     0
 72
   100
 73
     1
 74
     3
 75
     0
 76
     0
 77
     0
 78
     0
281
     0
 65
     1
110
0.0
120
0.0
130
0.0
111
1.0
121
0.0
131
0.0
112
0.0
122
1.0
132
0.0
 79
     0
146
0.0
  0
ENDTAB
  0
TABLE
  2
LTYPE
  5
5
330
0
100
AcDbSymbolTable
 70
     1
  0
LTYPE
  5
14
330
5
100
AcDbSymbolTableRecord
100
AcDbLinetypeTableRecord
  2
ByBlock
 70
     0
  3

 72
    65
 73
     0
 40
0.0
  0
LTYPE
  5
15
330
5
100
AcDbSymbolTableRecord
100
AcDbLinetypeTableRecord
  2
ByLayer
 70
     0
  3

 72
    65
 73
     0
 40
0.0
  0
LTYPE
  5
16
330
5
100
AcDbSymbolTableRecord
100
AcDbLinetypeTableRecord
  2
Continuous
 70
     0
  3
Solid line
 72
    65
 73
     0
 40
0.0
  0
ENDTAB
  0
TABLE
  2
LAYER
  5
2
330
0
100
AcDbSymbolTable
 70
     2
  0
LAYER
  5
10
330
2
100
AcDbSymbolTableRecord
100
AcDbLayerTableRecord
  2
0
 70
     0
 62
     7
  6
Continuous
370
    -3
390
F
  0
LAYER
  5
3B
330
2
100
AcDbSymbolTableRecord
100
AcDbLayerTableRecord
  2
Layer 1
 70
     0
 62
     7
  6
Continuous
370
    -3
390
F
  0
ENDTAB
  0
TABLE
  2
STYLE
  5
3
330
0
100
AcDbSymbolTable
 70
     1
  0
STYLE
  5
11
330
3
100
AcDbSymbolTableRecord
100
AcDbTextStyleTableRecord
  2
Standard
 70
     0
 40
0.0
 41
1.0
 50
0.0
 71
     0
 42
0.2
  3
txt
  4

  0
ENDTAB
  0
TABLE
  2
VIEW
  5
6
330
0
100
AcDbSymbolTable
 70
     0
  0
ENDTAB
  0
TABLE
  2
UCS
  5
7
330
0
100
AcDbSymbolTable
 70
     0
  0
ENDTAB
  0
TABLE
  2
APPID
  5
9
330
0
100
AcDbSymbolTable
 70
     1
  0
APPID
  5
12
330
9
100
AcDbSymbolTableRecord
100
AcDbRegAppTableRecord
  2
ACAD
 70
     0
  0
ENDTAB
  0
TABLE
  2
DIMSTYLE
  5
A
330
0
100
AcDbSymbolTable
 70
     1
100
AcDbDimStyleTable
  0
DIMSTYLE
105
27
330
A
100
AcDbSymbolTableRecord
100
AcDbDimStyleTableRecord
  2
Standard
 70
     0
340
11
  0
ENDTAB
  0
TABLE
  2
BLOCK_RECORD
  5
1
330
0
100
AcDbSymbolTable
 70
     2
  0
BLOCK_RECORD
  5
1F
330
1
100
AcDbSymbolTableRecord
100
AcDbBlockTableRecord
  2
*Model_Space
340
22
  0
BLOCK_RECORD
  5
1B
330
1
100
AcDbSymbolTableRecord
100
AcDbBlockTableRecord
  2
*Paper_Space
340
1E
  0
BLOCK_RECORD
  5
23
330
1
100
AcDbSymbolTableRecord
100
AcDbBlockTableRecord
  2
*Paper_Space0
340
26
  0
BLOCK_RECORD
  5
3C
330
1
100
AcDbSymbolTableRecord
100
AcDbBlockTableRecord
  2
block 2
340
0
102
{BLKREFS
331
3D
102
}
  0
ENDTAB
  0
ENDSEC
  0
SECTION
  2
BLOCKS
  0
BLOCK
  5
20
330
1F
100
AcDbEntity
  8
0
100
AcDbBlockBegin
  2
*Model_Space
 70
     0
 71
     0
 10
0.0
 20
0.0
 30
0.0
  3
*Model_Space
  1

  0
ENDBLK
  5
21
330
1F
100
AcDbEntity
  8
0
100
AcDbBlockEnd
  0
BLOCK
  5
1C
330
1B
100
AcDbEntity
 67
     1
  8
0
100
AcDbBlockBegin
  2
*Paper_Space
 70
     0
 71
     0
 10
0.0
 20
0.0
 30
0.0
  3
*Paper_Space
  1

  0
ENDBLK
  5
1D
330
1B
100
AcDbEntity
 67
     1
  8
0
100
AcDbBlockEnd
  0
BLOCK
  5
24
330
23
100
AcDbEntity
  8
0
100
AcDbBlockBegin
  2
*Paper_Space0
 70
     0
 71
     0
 10
0.0
 20
0.0
 30
0.0
  3
*Paper_Space0
  1

  0
ENDBLK
  5
25
330
23
100
AcDbEntity
  8
0
100
AcDbBlockEnd
  0
BLOCK
  5
3E
330
3C
100
AcDbEntity
  8
0
100
AcDbBlockBegin
  2
block 2
 70
     0
 71
     0
 10
0.0
 20
0.0
 30
0.0
  3
block 2
  1

  0
SPLINE
  5
40
330
3C
100
AcDbEntity
  8
Layer 1
370
     0
100
AcDbSpline
210
0.0
220
0.0
230
1.0
 70
    11
 71
     3
 72
    38
 73
    34
 74
     0
 42
0.0000000001
 43
0.0000000001
 40
0.0
 40
0.0
 40
0.0
 40
0.0
 40
1.0
 40
1.0
 40
1.0
 40
2.0
 40
2.0
 40
2.0
 40
3.0
 40
3.0
 40
3.0
 40
4.0
 40
4.0
 40
4.0
 40
5.0
 40
5.0
 40
5.0
 40
6.0
 40
6.0
 40
6.0
 40
7.0
 40
7.0
 40
7.0
 40
8.0
 40
8.0
 40
8.0
 40
9.0
 40
9.0
 40
9.0
 40
10.0
 40
10.0
 40
10.0
 40
11.0
 40
11.0
 40
11.0
 40
11.0
 10
101.88671875
 20
257.931640625
 30
0.0
 10
104.3544921875
 20
246.5029296875
 30
0.0
 10
114.37548828125
 20
237.94482421875
 30
0.0
 10
126.36083984375
 20
237.94482421875
 30
0.0
 10
134.88232421875
 20
237.94482421875
 30
0.0
 10
142.41357421875
 20
242.27392578125
 30
0.0
 10
146.9404296875
 20
248.88427734375
 30
0.0
 10
148.28466796875
 20
247.72607421875
 30
0.0
 10
149.8515625
 20
246.8681640625
 30
0.0
 10
151.55859375
 20
246.40625
 30
0.0
 10
151.60302734375
 20
246.3955078125
 30
0.0
 10
151.64501953125
 20
246.3828125
 30
0.0
 10
151.6865234375
 20
246.37158203125
 30
0.0
 10
151.6865234375
 20
246.37158203125
 30
0.0
 10
151.48486328125
 20
246.40625
 30
0.0
 10
151.48486328125
 20
246.40625
 30
0.0
 10
151.48486328125
 20
246.40625
 30
0.0
 10
151.6865234375
 20
246.37158203125
 30
0.0
 10
151.6865234375
 20
246.37158203125
 30
0.0
 10
153.27001953125
 20
245.96337890625
 30
0.0
 10
155.19873046875
 20
245.69873046875
 30
0.0
 10
157.10888671875
 20
245.58203125
 30
0.0
 10
150.9541015625
 20
234.99169921875
 30
0.0
 10
139.48876953125
 20
227.869140625
 30
0.0
 10
126.36083984375
 20
227.869140625
 30
0.0
 10
109.1396484375
 20
227.869140625
 30
0.0
 10
94.77685546875
 20
240.12353515625
 30
0.0
 10
91.515625
 20
256.38623046875
 30
0.0
 10
91.515625
 20
256.38623046875
 30
0.0
 10
91.529296875
 20
256.39453125
 30
0.0
 10
91.529296875
 20
256.39453125
 30
0.0
 10
95.88818359375
 20
256.36328125
 30
0.0
 10
99.42138671875
 20
256.83740234375
 30
0.0
 10
101.88671875
 20
257.931640625
 30
0.0
  0
SPLINE
  5
41
330
3C
100
AcDbEntity
  8
Layer 1
370
     0
100
AcDbSpline
210
0.0
220
0.0
230
1.0
 70
    11
 71
     3
 72
    26
 73
    22
 74
     0
 42
0.0000000001
 43
0.0000000001
 40
0.0
 40
0.0
 40
0.0
 40
0.0
 40
1.0
 40
1.0
 40
1.0
 40
2.0
 40
2.0
 40
2.0
 40
3.0
 40
3.0
 40
3.0
 40
4.0
 40
4.0
 40
4.0
 40
5.0
 40
5.0
 40
5.0
 40
6.0
 40
6.0
 40
6.0
 40
7.0
 40
7.0
 40
7.0
 40
7.0
 10
126.36083984375
 20
298.9501953125
 30
0.0
 10
139.291015625
 20
298.9501953125
 30
0.0
 10
150.60791015625
 20
292.0400390625
 30
0.0
 10
156.82666015625
 20
281.71484375
 30
0.0
 10
156.82666015625
 20
281.71484375
 30
0.0
 10
143.77685546875
 20
281.71484375
 30
0.0
 10
143.77685546875
 20
281.71484375
 30
0.0
 10
139.2685546875
 20
286.146484375
 30
0.0
 10
133.12744140625
 20
288.8740234375
 30
0.0
 10
126.36083984375
 20
288.8740234375
 30
0.0
 10
118.12255859375
 20
288.8740234375
 30
0.0
 10
110.81298828125
 20
284.83203125
 30
0.0
 10
106.24609375
 20
278.59033203125
 30
0.0
 10
102.615234375
 20
280.591796875
 30
0.0
 10
98.986328125
 20
281.02490234375
 30
0.0
 10
95.48583984375
 20
280.94873046875
 30
0.0
 10
95.48583984375
 20
280.94873046875
 30
0.0
 10
95.4501953125
 20
280.9560546875
 30
0.0
 10
95.4501953125
 20
280.9560546875
 30
0.0
 10
101.56298828125
 20
291.70166015625
 30
0.0
 10
113.1162109375
 20
298.9501953125
 30
0.0
 10
126.36083984375
 20
298.9501953125
 30
0.0
  0
HATCH
  5
42
330
3C
100
AcDbEntity
  8
Layer 1
 62
   177
420
  3027090
100
AcDbHatch
 10
0.0
 20
0.0
 30
0.0
210
0.0
220
0.0
230
1.0
  2
SOLID
 70
     1
 71
     0
 91
        2
 92
        1
 93
        1
 72
     4
 94
        3
 73
     0
 74
     1
 95
       26
 96
       22
 40
0.0
 40
0.0
 40
0.0
 40
0.0
 40
1.0
 40
1.0
 40
1.0
 40
2.0
 40
2.0
 40
2.0
 40
3.0
 40
3.0
 40
3.0
 40
4.0
 40
4.0
 40
4.0
 40
5.0
 40
5.0
 40
5.0
 40
6.0
 40
6.0
 40
6.0
 40
7.0
 40
7.0
 40
7.0
 40
7.0
 10
126.36083984375
 20
298.9501953125
 10
139.291015625
 20
298.9501953125
 10
150.60791015625
 20
292.0400390625
 10
156.82666015625
 20
281.71484375
 10
156.82666015625
 20
281.71484375
 10
143.77685546875
 20
281.71484375
 10
143.77685546875
 20
281.71484375
 10
139.2685546875
 20
286.146484375
 10
133.12744140625
 20
288.8740234375
 10
126.36083984375
 20
288.8740234375
 10
118.12255859375
 20
288.8740234375
 10
110.81298828125
 20
284.83203125
 10
106.24609375
 20
278.59033203125
 10
102.615234375
 20
280.591796875
 10
98.986328125
 20
281.02490234375
 10
95.48583984375
 20
280.94873046875
 10
95.48583984375
 20
280.94873046875
 10
95.4501953125
 20
280.9560546875
 10
95.4501953125
 20
280.9560546875
 10
101.56298828125
 20
291.70166015625
 10
113.1162109375
 20
298.9501953125
 10
126.36083984375
 20
298.9501953125
 97
        0
 92
        1
 93
        2
 72
     4
 94
        3
 73
     0
 74
     0
 95
       38
 96
       34
 40
0.0
 40
0.0
 40
0.0
 40
0.0
 40
1.0
 40
1.0
 40
1.0
 40
2.0
 40
2.0
 40
2.0
 40
3.0
 40
3.0
 40
3.0
 40
4.0
 40
4.0
 40
4.0
 40
5.0
 40
5.0
 40
5.0
 40
6.0
 40
6.0
 40
6.0
 40
7.0
 40
7.0
 40
7.0
 40
8.0
 40
8.0
 40
8.0
 40
9.0
 40
9.0
 40
9.0
 40
10.0
 40
10.0
 40
10.0
 40
11.0
 40
11.0
 40
11.0
 40
11.0
 10
101.88671875
 20
257.931640625
 10
104.3544921875
 20
246.5029296875
 10
114.37548828125
 20
237.94482421875
 10
126.36083984375
 20
237.94482421875
 10
134.88232421875
 20
237.94482421875
 10
142.41357421875
 20
242.27392578125
 10
146.9404296875
 20
248.88427734375
 10
148.28466796875
 20
247.72607421875
 10
149.8515625
 20
246.8681640625
 10
151.55859375
 20
246.40625
 10
151.60302734375
 20
246.3955078125
 10
151.64501953125
 20
246.3828125
 10
151.6865234375
 20
246.37158203125
 10
151.6865234375
 20
246.37158203125
 10
151.48486328125
 20
246.40625
 10
151.48486328125
 20
246.40625
 10
151.48486328125
 20
246.40625
 10
151.6865234375
 20
246.37158203125
 10
151.6865234375
 20
246.37158203125
 10
153.27001953125
 20
245.96337890625
 10
155.19873046875
 20
245.69873046875
 10
157.10888671875
 20
245.58203125
 10
150.9541015625
 20
234.99169921875
 10
139.48876953125
 20
227.869140625
 10
126.36083984375
 20
227.869140625
 10
109.1396484375
 20
227.869140625
 10
94.77685546875
 20
240.12353515625
 10
91.515625
 20
256.38623046875
 10
91.515625
 20
256.38623046875
 10
91.529296875
 20
256.39453125
 10
91.529296875
 20
256.39453125
 10
95.88818359375
 20
256.36328125
 10
99.42138671875
 20
256.83740234375
 10
101.88671875
 20
257.931640625
 72
     1
 10
101.88671875
 20
257.931640625
 11
101.88671875
 21
257.931640625
 97
        0
 75
     0
 76
     1
 98
        0
  0
SPLINE
  5
43
330
3C
100
AcDbEntity
  8
Layer 1
370
     0
100
AcDbSpline
210
0.0
220
0.0
230
1.0
 70
    11
 71
     3
 72
    23
 73
    19
 74
     0
 42
0.0000000001
 43
0.0000000001
 40
0.0
 40
0.0
 40
0.0
 40
0.0
 40
1.0
 40
1.0
 40
1.0
 40
2.0
 40
2.0
 40
2.0
 40
3.0
 40
3.0
 40
3.0
 40
4.0
 40
4.0
 40
4.0
 40
5.0
 40
5.0
 40
5.0
 40
6.0
 40
6.0
 40
6.0
 40
6.0
 10
164.98388671875
 20
250.11669921875
 30
0.0
 10
164.98388671875
 20
250.11669921875
 30
0.0
 10
164.98388671875
 20
276.5966796875
 30
0.0
 10
164.98388671875
 20
276.5966796875
 30
0.0
 10
164.98388671875
 20
276.5966796875
 30
0.0
 10
180.02978515625
 20
276.5966796875
 30
0.0
 10
180.02978515625
 20
276.5966796875
 30
0.0
 10
180.02978515625
 20
276.5966796875
 30
0.0
 10
180.02978515625
 20
259.70458984375
 30
0.0
 10
180.02978515625
 20
259.70458984375
 30
0.0
 10
180.02978515625
 20
256.1669921875
 30
0.0
 10
178.8994140625
 20
253.697265625
 30
0.0
 10
176.6611328125
 20
252.2900390625
 30
0.0
 10
175.54052734375
 20
251.58349609375
 30
0.0
 10
174.00341796875
 20
251.04638671875
 30
0.0
 10
172.05029296875
 20
250.67431640625
 30
0.0
 10
170.1083984375
 20
250.30517578125
 30
0.0
 10
167.74853515625
 20
250.11669921875
 30
0.0
 10
164.98388671875
 20
250.11669921875
 30
0.0
  0
SPLINE
  5
44
330
3C
100
AcDbEntity
  8
Layer 1
370
     0
100
AcDbSpline
210
0.0
220
0.0
230
1.0
 70
    11
 71
     3
 72
    23
 73
    19
 74
     0
 42
0.0000000001
 43
0.0000000001
 40
0.0
 40
0.0
 40
0.0
 40
0.0
 40
1.0
 40
1.0
 40
1.0
 40
2.0
 40
2.0
 40
2.0
 40
3.0
 40
3.0
 40
3.0
 40
4.0
 40
4.0
 40
4.0
 40
5.0
 40
5.0
 40
5.0
 40
6.0
 40
6.0
 40
6.0
 40
6.0
 10
161.73291015625
 20
250.11669921875
 30
0.0
 10
158.96728515625
 20
250.11669921875
 30
0.0
 10
156.6083984375
 20
250.298828125
 30
0.0
 10
154.67626953125
 20
250.654296875
 30
0.0
 10
152.74169921875
 20
251.01611328125
 30
0.0
 10
151.18603515625
 20
251.5595703125
 30
0.0
 10
150.02734375
 20
252.2900390625
 30
0.0
 10
147.8056640625
 20
253.70849609375
 30
0.0
 10
146.6865234375
 20
256.17822265625
 30
0.0
 10
146.6865234375
 20
259.70458984375
 30
0.0
 10
146.6865234375
 20
259.70458984375
 30
0.0
 10
146.6865234375
 20
276.5966796875
 30
0.0
 10
146.6865234375
 20
276.5966796875
 30
0.0
 10
146.6865234375
 20
276.5966796875
 30
0.0
 10
161.73291015625
 20
276.5966796875
 30
0.0
 10
161.73291015625
 20
276.5966796875
 30
0.0
 10
161.73291015625
 20
276.5966796875
 30
0.0
 10
161.73291015625
 20
250.11669921875
 30
0.0
 10
161.73291015625
 20
250.11669921875
 30
0.0
  0
POLYLINE
  5
45
330
3C
100
AcDbEntity
  8
Layer 1
370
     0
100
AcDb2dPolyline
 66
     1
 10
0.0
 20
0.0
 30
0.0
  0
VERTEX
  5
46
330
45
100
AcDbEntity
  8
Layer 1
370
     0
100
AcDbVertex
100
AcDb2dVertex
 10
109.51611328125
 20
250.4375
 30
0.0
  0
VERTEX
  5
47
330
45
100
AcDbEntity
  8
Layer 1
370
     0
100
AcDbVertex
100
AcDb2dVertex
 10
109.51611328125
 20
276.6328125
 30
0.0
  0
VERTEX
  5
48
330
45
100
AcDbEntity
  8
Layer 1
370
     0
100
AcDbVertex
100
AcDb2dVertex
 10
124.7900390625
 20
276.6328125
 30
0.0
  0
VERTEX
  5
49
330
45
100
AcDbEntity
  8
Layer 1
370
     0
100
AcDbVertex
100
AcDb2dVertex
 10
124.7900390625
 20
250.4375
 30
0.0
  0
VERTEX
  5
4A
330
45
100
AcDbEntity
  8
Layer 1
370
     0
100
AcDbVertex
100
AcDb2dVertex
 10
109.51611328125
 20
250.4375
 30
0.0
  0
SEQEND
  5
4B
330
45
100
AcDbEntity
  8
Layer 1
370
     0
  0
SPLINE
  5
4C
330
3C
100
AcDbEntity
  8
Layer 1
370
     0
100
AcDbSpline
210
0.0
220
0.0
230
1.0
 70
    11
 71
     3
 72
    32
 73
    28
 74
     0
 42
0.0000000001
 43
0.0000000001
 40
0.0
 40
0.0
 40
0.0
 40
0.0
 40
1.0
 40
1.0
 40
1.0
 40
2.0
 40
2.0
 40
2.0
 40
3.0
 40
3.0
 40
3.0
 40
4.0
 40
4.0
 40
4.0
 40
5.0
 40
5.0
 40
5.0
 40
6.0
 40
6.0
 40
6.0
 40
7.0
 40
7.0
 40
7.0
 40
8.0
 40
8.0
 40
8.0
 40
9.0
 40
9.0
 40
9.0
 40
9.0
 10
128.41748046875
 20
276.5966796875
 30
0.0
 10
128.41748046875
 20
276.5966796875
 30
0.0
 10
129.2021484375
 20
276.6328125
 30
0.0
 10
129.2021484375
 20
276.6328125
 30
0.0
 10
129.2021484375
 20
276.6328125
 30
0.0
 10
130.42041015625
 20
276.6328125
 30
0.0
 10
130.42041015625
 20
276.6328125
 30
0.0
 10
135.08837890625
 20
276.6328125
 30
0.0
 10
138.5380859375
 20
276.0107421875
 30
0.0
 10
140.7685546875
 20
274.76611328125
 30
0.0
 10
142.98876953125
 20
273.5234375
 30
0.0
 10
144.1083984375
 20
271.6171875
 30
0.0
 10
144.1083984375
 20
269.044921875
 30
0.0
 10
144.1083984375
 20
266.44140625
 30
0.0
 10
142.98876953125
 20
264.5087890625
 30
0.0
 10
140.7685546875
 20
263.26025390625
 30
0.0
 10
138.5380859375
 20
262.01123046875
 30
0.0
 10
135.08837890625
 20
261.38818359375
 30
0.0
 10
130.42041015625
 20
261.38818359375
 30
0.0
 10
130.42041015625
 20
261.38818359375
 30
0.0
 10
129.2021484375
 20
261.38818359375
 30
0.0
 10
129.2021484375
 20
261.38818359375
 30
0.0
 10
129.2021484375
 20
261.38818359375
 30
0.0
 10
128.41748046875
 20
261.43701171875
 30
0.0
 10
128.41748046875
 20
261.43701171875
 30
0.0
 10
128.41748046875
 20
261.43701171875
 30
0.0
 10
128.41748046875
 20
276.5966796875
 30
0.0
 10
128.41748046875
 20
276.5966796875
 30
0.0
  0
POLYLINE
  5
4D
330
3C
100
AcDbEntity
  8
Layer 1
370
     0
100
AcDb2dPolyline
 66
     1
 10
0.0
 20
0.0
 30
0.0
  0
VERTEX
  5
4E
330
4D
100
AcDbEntity
  8
Layer 1
370
     0
100
AcDbVertex
100
AcDb2dVertex
 10
72.34521484375
 20
250.4375
 30
0.0
  0
VERTEX
  5
4F
330
4D
100
AcDbEntity
  8
Layer 1
370
     0
100
AcDbVertex
100
AcDb2dVertex
 10
72.34521484375
 20
276.6328125
 30
0.0
  0
VERTEX
  5
50
330
4D
100
AcDbEntity
  8
Layer 1
370
     0
100
AcDbVertex
100
AcDb2dVertex
 10
87.619140625
 20
276.6328125
 30
0.0
  0
VERTEX
  5
51
330
4D
100
AcDbEntity
  8
Layer 1
370
     0
100
AcDbVertex
100
AcDb2dVertex
 10
87.619140625
 20
250.4375
 30
0.0
  0
VERTEX
  5
52
330
4D
100
AcDbEntity
  8
Layer 1
370
     0
100
AcDbVertex
100
AcDb2dVertex
 10
72.34521484375
 20
250.4375
 30
0.0
  0
SEQEND
  5
53
330
4D
100
AcDbEntity
  8
Layer 1
370
     0
  0
SPLINE
  5
54
330
3C
100
AcDbEntity
  8
Layer 1
370
     0
100
AcDbSpline
210
0.0
220
0.0
230
1.0
 70
    11
 71
     3
 72
    32
 73
    28
 74
     0
 42
0.0000000001
 43
0.0000000001
 40
0.0
 40
0.0
 40
0.0
 40
0.0
 40
1.0
 40
1.0
 40
1.0
 40
2.0
 40
2.0
 40
2.0
 40
3.0
 40
3.0
 40
3.0
 40
4.0
 40
4.0
 40
4.0
 40
5.0
 40
5.0
 40
5.0
 40
6.0
 40
6.0
 40
6.0
 40
7.0
 40
7.0
 40
7.0
 40
8.0
 40
8.0
 40
8.0
 40
9.0
 40
9.0
 40
9.0
 40
9.0
 10
91.2470703125
 20
276.5966796875
 30
0.0
 10
91.2470703125
 20
276.5966796875
 30
0.0
 10
92.03076171875
 20
276.6328125
 30
0.0
 10
92.03076171875
 20
276.6328125
 30
0.0
 10
92.03076171875
 20
276.6328125
 30
0.0
 10
93.25
 20
276.6328125
 30
0.0
 10
93.25
 20
276.6328125
 30
0.0
 10
97.91943359375
 20
276.6328125
 30
0.0
 10
101.36962890625
 20
276.0107421875
 30
0.0
 10
103.59814453125
 20
274.76611328125
 30
0.0
 10
105.81884765625
 20
273.5234375
 30
0.0
 10
106.9375
 20
271.6171875
 30
0.0
 10
106.9375
 20
269.044921875
 30
0.0
 10
106.9375
 20
266.44140625
 30
0.0
 10
105.81884765625
 20
264.5087890625
 30
0.0
 10
103.59814453125
 20
263.26025390625
 30
0.0
 10
101.36962890625
 20
262.01123046875
 30
0.0
 10
97.91943359375
 20
261.38818359375
 30
0.0
 10
93.25
 20
261.38818359375
 30
0.0
 10
93.25
 20
261.38818359375
 30
0.0
 10
92.03076171875
 20
261.38818359375
 30
0.0
 10
92.03076171875
 20
261.38818359375
 30
0.0
 10
92.03076171875
 20
261.38818359375
 30
0.0
 10
91.2470703125
 20
261.43701171875
 30
0.0
 10
91.2470703125
 20
261.43701171875
 30
0.0
 10
91.2470703125
 20
261.43701171875
 30
0.0
 10
91.2470703125
 20
276.5966796875
 30
0.0
 10
91.2470703125
 20
276.5966796875
 30
0.0
  0
HATCH
  5
55
330
3C
100
AcDbEntity
  8
Layer 1
 62
   177
420
  3027090
100
AcDbHatch
 10
0.0
 20
0.0
 30
0.0
210
0.0
220
0.0
230
1.0
  2
SOLID
 70
     1
 71
     0
 91
        6
 92
        1
 93
        1
 72
     4
 94
        3
 73
     0
 74
     1
 95
       23
 96
       19
 40
0.0
 40
0.0
 40
0.0
 40
0.0
 40
1.0
 40
1.0
 40
1.0
 40
2.0
 40
2.0
 40
2.0
 40
3.0
 40
3.0
 40
3.0
 40
4.0
 40
4.0
 40
4.0
 40
5.0
 40
5.0
 40
5.0
 40
6.0
 40
6.0
 40
6.0
 40
6.0
 10
161.73291015625
 20
250.11669921875
 10
158.96728515625
 20
250.11669921875
 10
156.6083984375
 20
250.298828125
 10
154.67626953125
 20
250.654296875
 10
152.74169921875
 20
251.01611328125
 10
151.18603515625
 20
251.5595703125
 10
150.02734375
 20
252.2900390625
 10
147.8056640625
 20
253.70849609375
 10
146.6865234375
 20
256.17822265625
 10
146.6865234375
 20
259.70458984375
 10
146.6865234375
 20
259.70458984375
 10
146.6865234375
 20
276.5966796875
 10
146.6865234375
 20
276.5966796875
 10
146.6865234375
 20
276.5966796875
 10
161.73291015625
 20
276.5966796875
 10
161.73291015625
 20
276.5966796875
 10
161.73291015625
 20
276.5966796875
 10
161.73291015625
 20
250.11669921875
 10
161.73291015625
 20
250.11669921875
 97
        0
 92
        1
 93
        4
 72
     1
 10
109.51611328125
 20
250.4375
 11
109.51611328125
 21
276.6328125
 72
     1
 10
109.51611328125
 20
276.6328125
 11
124.7900390625
 21
276.6328125
 72
     1
 10
124.7900390625
 20
276.6328125
 11
124.7900390625
 21
250.4375
 72
     1
 10
124.7900390625
 20
250.4375
 11
109.51611328125
 21
250.4375
 97
        0
 92
        1
 93
        1
 72
     4
 94
        3
 73
     0
 74
     1
 95
       32
 96
       28
 40
0.0
 40
0.0
 40
0.0
 40
0.0
 40
1.0
 40
1.0
 40
1.0
 40
2.0
 40
2.0
 40
2.0
 40
3.0
 40
3.0
 40
3.0
 40
4.0
 40
4.0
 40
4.0
 40
5.0
 40
5.0
 40
5.0
 40
6.0
 40
6.0
 40
6.0
 40
7.0
 40
7.0
 40
7.0
 40
8.0
 40
8.0
 40
8.0
 40
9.0
 40
9.0
 40
9.0
 40
9.0
 10
128.41748046875
 20
276.5966796875
 10
128.41748046875
 20
276.5966796875
 10
129.2021484375
 20
276.6328125
 10
129.2021484375
 20
276.6328125
 10
129.2021484375
 20
276.6328125
 10
130.42041015625
 20
276.6328125
 10
130.42041015625
 20
276.6328125
 10
135.08837890625
 20
276.6328125
 10
138.5380859375
 20
276.0107421875
 10
140.7685546875
 20
274.76611328125
 10
142.98876953125
 20
273.5234375
 10
144.1083984375
 20
271.6171875
 10
144.1083984375
 20
269.044921875
 10
144.1083984375
 20
266.44140625
 10
142.98876953125
 20
264.5087890625
 10
140.7685546875
 20
263.26025390625
 10
138.5380859375
 20
262.01123046875
 10
135.08837890625
 20
261.38818359375
 10
130.42041015625
 20
261.38818359375
 10
130.42041015625
 20
261.38818359375
 10
129.2021484375
 20
261.38818359375
 10
129.2021484375
 20
261.38818359375
 10
129.2021484375
 20
261.38818359375
 10
128.41748046875
 20
261.43701171875
 10
128.41748046875
 20
261.43701171875
 10
128.41748046875
 20
261.43701171875
 10
128.41748046875
 20
276.5966796875
 10
128.41748046875
 20
276.5966796875
 97
        0
 92
        1
 93
        4
 72
     1
 10
72.34521484375
 20
250.4375
 11
72.34521484375
 21
276.6328125
 72
     1
 10
72.34521484375
 20
276.6328125
 11
87.619140625
 21
276.6328125
 72
     1
 10
87.619140625
 20
276.6328125
 11
87.619140625
 21
250.4375
 72
     1
 10
87.619140625
 20
250.4375
 11
72.34521484375
 21
250.4375
 97
        0
 92
        1
 93
        1
 72
     4
 94
        3
 73
     0
 74
     1
 95
       32
 96
       28
 40
0.0
 40
0.0
 40
0.0
 40
0.0
 40
1.0
 40
1.0
 40
1.0
 40
2.0
 40
2.0
 40
2.0
 40
3.0
 40
3.0
 40
3.0
 40
4.0
 40
4.0
 40
4.0
 40
5.0
 40
5.0
 40
5.0
 40
6.0
 40
6.0
 40
6.0
 40
7.0
 40
7.0
 40
7.0
 40
8.0
 40
8.0
 40
8.0
 40
9.0
 40
9.0
 40
9.0
 40
9.0
 10
91.2470703125
 20
276.5966796875
 10
91.2470703125
 20
276.5966796875
 10
92.03076171875
 20
276.6328125
 10
92.03076171875
 20
276.6328125
 10
92.03076171875
 20
276.6328125
 10
93.25
 20
276.6328125
 10
93.25
 20
276.6328125
 10
97.91943359375
 20
276.6328125
 10
101.36962890625
 20
276.0107421875
 10
103.59814453125
 20
274.76611328125
 10
105.81884765625
 20
273.5234375
 10
106.9375
 20
271.6171875
 10
106.9375
 20
269.044921875
 10
106.9375
 20
266.44140625
 10
105.81884765625
 20
264.5087890625
 10
103.59814453125
 20
263.26025390625
 10
101.36962890625
 20
262.01123046875
 10
97.91943359375
 20
261.38818359375
 10
93.25
 20
261.38818359375
 10
93.25
 20
261.38818359375
 10
92.03076171875
 20
261.38818359375
 10
92.03076171875
 20
261.38818359375
 10
92.03076171875
 20
261.38818359375
 10
91.2470703125
 20
261.43701171875
 10
91.2470703125
 20
261.43701171875
 10
91.2470703125
 20
261.43701171875
 10
91.2470703125
 20
276.5966796875
 10
91.2470703125
 20
276.5966796875
 97
        0
 92
        1
 93
        2
 72
     4
 94
        3
 73
     0
 74
     0
 95
       23
 96
       19
 40
0.0
 40
0.0
 40
0.0
 40
0.0
 40
1.0
 40
1.0
 40
1.0
 40
2.0
 40
2.0
 40
2.0
 40
3.0
 40
3.0
 40
3.0
 40
4.0
 40
4.0
 40
4.0
 40
5.0
 40
5.0
 40
5.0
 40
6.0
 40
6.0
 40
6.0
 40
6.0
 10
164.98388671875
 20
250.11669921875
 10
164.98388671875
 20
250.11669921875
 10
164.98388671875
 20
276.5966796875
 10
164.98388671875
 20
276.5966796875
 10
164.98388671875
 20
276.5966796875
 10
180.02978515625
 20
276.5966796875
 10
180.02978515625
 20
276.5966796875
 10
180.02978515625
 20
276.5966796875
 10
180.02978515625
 20
259.70458984375
 10
180.02978515625
 20
259.70458984375
 10
180.02978515625
 20
256.1669921875
 10
178.8994140625
 20
253.697265625
 10
176.6611328125
 20
252.2900390625
 10
175.54052734375
 20
251.58349609375
 10
174.00341796875
 20
251.04638671875
 10
172.05029296875
 20
250.67431640625
 10
170.1083984375
 20
250.30517578125
 10
167.74853515625
 20
250.11669921875
 10
164.98388671875
 20
250.11669921875
 72
     1
 10
164.98388671875
 20
250.11669921875
 11
164.98388671875
 21
250.11669921875
 97
        0
 75
     0
 76
     1
 98
        0
  0
SPLINE
  5
56
330
3C
100
AcDbEntity
  8
Layer 1
370
     0
100
AcDbSpline
210
0.0
220
0.0
230
1.0
 70
    11
 71
     3
 72
    23
 73
    19
 74
     0
 42
0.0000000001
 43
0.0000000001
 40
0.0
 40
0.0
 40
0.0
 40
0.0
 40
1.0
 40
1.0
 40
1.0
 40
2.0
 40
2.0
 40
2.0
 40
3.0
 40
3.0
 40
3.0
 40
4.0
 40
4.0
 40
4.0
 40
5.0
 40
5.0
 40
5.0
 40
6.0
 40
6.0
 40
6.0
 40
6.0
 10
493.501953125
 20
274.7314453125
 30
0.0
 10
493.501953125
 20
274.7314453125
 30
0.0
 10
494.7666015625
 20
274.7314453125
 30
0.0
 10
494.7666015625
 20
274.7314453125
 30
0.0
 10
498.4130859375
 20
274.7314453125
 30
0.0
 10
500.86328125
 20
274.16650390625
 30
0.0
 10
502.111328125
 20
273.03076171875
 30
0.0
 10
503.349609375
 20
271.90185546875
 30
0.0
 10
503.97265625
 20
269.6357421875
 30
0.0
 10
503.97265625
 20
266.24365234375
 30
0.0
 10
503.97265625
 20
266.24365234375
 30
0.0
 10
503.97265625
 20
251.5166015625
 30
0.0
 10
503.97265625
 20
251.5166015625
 30
0.0
 10
503.97265625
 20
251.5166015625
 30
0.0
 10
493.501953125
 20
251.5166015625
 30
0.0
 10
493.501953125
 20
251.5166015625
 30
0.0
 10
493.501953125
 20
251.5166015625
 30
0.0
 10
493.501953125
 20
274.7314453125
 30
0.0
 10
493.501953125
 20
274.7314453125
 30
0.0
  0
POLYLINE
  5
57
330
3C
100
AcDbEntity
  8
Layer 1
370
     0
100
AcDb2dPolyline
 66
     1
 10
0.0
 20
0.0
 30
0.0
  0
VERTEX
  5
58
330
57
100
AcDbEntity
  8
Layer 1
370
     0
100
AcDbVertex
100
AcDb2dVertex
 10
490.5947265625
 20
251.5166015625
 30
0.0
  0
VERTEX
  5
59
330
57
100
AcDbEntity
  8
Layer 1
370
     0
100
AcDbVertex
100
AcDb2dVertex
 10
480.0966796875
 20
251.5166015625
 30
0.0
  0
VERTEX
  5
5A
330
57
100
AcDbEntity
  8
Layer 1
370
     0
100
AcDbVertex
100
AcDb2dVertex
 10
480.0966796875
 20
274.7314453125
 30
0.0
  0
VERTEX
  5
5B
330
57
100
AcDbEntity
  8
Layer 1
370
     0
100
AcDbVertex
100
AcDb2dVertex
 10
490.5947265625
 20
274.7314453125
 30
0.0
  0
VERTEX
  5
5C
330
57
100
AcDbEntity
  8
Layer 1
370
     0
100
AcDbVertex
100
AcDb2dVertex
 10
490.5947265625
 20
251.5166015625
 30
0.0
  0
SEQEND
  5
5D
330
57
100
AcDbEntity
  8
Layer 1
370
     0
  0
SPLINE
  5
5E
330
3C
100
AcDbEntity
  8
Layer 1
370
     0
100
AcDbSpline
210
0.0
220
0.0
230
1.0
 70
    11
 71
     3
 72
    32
 73
    28
 74
     0
 42
0.0000000001
 43
0.0000000001
 40
0.0
 40
0.0
 40
0.0
 40
0.0
 40
1.0
 40
1.0
 40
1.0
 40
2.0
 40
2.0
 40
2.0
 40
3.0
 40
3.0
 40
3.0
 40
4.0
 40
4.0
 40
4.0
 40
5.0
 40
5.0
 40
5.0
 40
6.0
 40
6.0
 40
6.0
 40
7.0
 40
7.0
 40
7.0
 40
8.0
 40
8.0
 40
8.0
 40
9.0
 40
9.0
 40
9.0
 40
9.0
 10
463.0009765625
 20
251.5166015625
 30
0.0
 10
462.8427734375
 20
251.5009765625
 30
0.0
 10
462.6669921875
 20
251.4921875
 30
0.0
 10
462.474609375
 20
251.4853515625
 30
0.0
 10
462.2802734375
 20
251.47802734375
 30
0.0
 10
461.9990234375
 20
251.4697265625
 30
0.0
 10
461.6396484375
 20
251.4697265625
 30
0.0
 10
458.5654296875
 20
251.4697265625
 30
0.0
 10
456.21875
 20
252.02734375
 30
0.0
 10
454.6015625
 20
253.1474609375
 30
0.0
 10
452.9765625
 20
254.263671875
 30
0.0
 10
452.1689453125
 20
255.87353515625
 30
0.0
 10
452.1689453125
 20
257.98046875
 30
0.0
 10
452.1689453125
 20
260.10986328125
 30
0.0
 10
452.96875
 20
261.7353515625
 30
0.0
 10
454.5751953125
 20
262.84912109375
 30
0.0
 10
456.1767578125
 20
263.96875
 30
0.0
 10
458.51171875
 20
264.52783203125
 30
0.0
 10
461.5869140625
 20
264.52783203125
 30
0.0
 10
461.9814453125
 20
264.52783203125
 30
0.0
 10
462.2724609375
 20
264.52783203125
 30
0.0
 10
462.46484375
 20
264.51904296875
 30
0.0
 10
462.6484375
 20
264.51025390625
 30
0.0
 10
462.82421875
 20
264.49755859375
 30
0.0
 10
463.0009765625
 20
264.4814453125
 30
0.0
 10
463.0009765625
 20
264.4814453125
 30
0.0
 10
463.0009765625
 20
251.5166015625
 30
0.0
 10
463.0009765625
 20
251.5166015625
 30
0.0
  0
SPLINE
  5
5F
330
3C
100
AcDbEntity
  8
Layer 1
370
     0
100
AcDbSpline
210
0.0
220
0.0
230
1.0
 70
    11
 71
     3
 72
    29
 73
    25
 74
     0
 42
0.0000000001
 43
0.0000000001
 40
0.0
 40
0.0
 40
0.0
 40
0.0
 40
1.0
 40
1.0
 40
1.0
 40
2.0
 40
2.0
 40
2.0
 40
3.0
 40
3.0
 40
3.0
 40
4.0
 40
4.0
 40
4.0
 40
5.0
 40
5.0
 40
5.0
 40
6.0
 40
6.0
 40
6.0
 40
7.0
 40
7.0
 40
7.0
 40
8.0
 40
8.0
 40
8.0
 40
8.0
 10
453.478515625
 20
270.1259765625
 30
0.0
 10
453.478515625
 20
271.37548828125
 30
0.0
 10
454.0048828125
 20
272.4580078125
 30
0.0
 10
455.0595703125
 20
273.36962890625
 30
0.0
 10
456.1220703125
 20
274.27978515625
 30
0.0
 10
457.3876953125
 20
274.7314453125
 30
0.0
 10
458.85546875
 20
274.7314453125
 30
0.0
 10
460.3125
 20
274.7314453125
 30
0.0
 10
461.5791015625
 20
274.27978515625
 30
0.0
 10
462.6396484375
 20
273.36962890625
 30
0.0
 10
463.703125
 20
272.4580078125
 30
0.0
 10
464.2294921875
 20
271.37548828125
 30
0.0
 10
464.2294921875
 20
270.1259765625
 30
0.0
 10
464.2294921875
 20
268.845703125
 30
0.0
 10
463.703125
 20
267.75439453125
 30
0.0
 10
462.6484375
 20
266.84521484375
 30
0.0
 10
461.5947265625
 20
265.93359375
 30
0.0
 10
460.3310546875
 20
265.47607421875
 30
0.0
 10
458.85546875
 20
265.47607421875
 30
0.0
 10
457.369140625
 20
265.47607421875
 30
0.0
 10
456.0966796875
 20
265.93359375
 30
0.0
 10
455.0498046875
 20
266.84521484375
 30
0.0
 10
454.0048828125
 20
267.75439453125
 30
0.0
 10
453.478515625
 20
268.845703125
 30
0.0
 10
453.478515625
 20
270.1259765625
 30
0.0
  0
SPLINE
  5
60
330
3C
100
AcDbEntity
  8
Layer 1
370
     0
100
AcDbSpline
210
0.0
220
0.0
230
1.0
 70
    11
 71
     3
 72
    32
 73
    28
 74
     0
 42
0.0000000001
 43
0.0000000001
 40
0.0
 40
0.0
 40
0.0
 40
0.0
 40
1.0
 40
1.0
 40
1.0
 40
2.0
 40
2.0
 40
2.0
 40
3.0
 40
3.0
 40
3.0
 40
4.0
 40
4.0
 40
4.0
 40
5.0
 40
5.0
 40
5.0
 40
6.0
 40
6.0
 40
6.0
 40
7.0
 40
7.0
 40
7.0
 40
8.0
 40
8.0
 40
8.0
 40
9.0
 40
9.0
 40
9.0
 40
9.0
 10
466.1630859375
 20
251.5166015625
 30
0.0
 10
466.1630859375
 20
251.5166015625
 30
0.0
 10
466.1630859375
 20
268.1396484375
 30
0.0
 10
466.1630859375
 20
268.1396484375
 30
0.0
 10
466.1630859375
 20
270.00537109375
 30
0.0
 10
465.92578125
 20
271.3896484375
 30
0.0
 10
465.4599609375
 20
272.2861328125
 30
0.0
 10
464.986328125
 20
273.18212890625
 30
0.0
 10
464.150390625
 20
273.986328125
 30
0.0
 10
462.94921875
 20
274.68603515625
 30
0.0
 10
464.0458984375
 20
274.8515625
 30
0.0
 10
464.9599609375
 20
274.96484375
 30
0.0
 10
465.6796875
 20
275.0322265625
 30
0.0
 10
466.4013671875
 20
275.1015625
 30
0.0
 10
467.0244140625
 20
275.1298828125
 30
0.0
 10
467.5517578125
 20
275.1298828125
 30
0.0
 10
470.5380859375
 20
275.1298828125
 30
0.0
 10
472.7607421875
 20
274.42333984375
 30
0.0
 10
474.2177734375
 20
273.0
 30
0.0
 10
475.677734375
 20
271.5859375
 30
0.0
 10
476.40625
 20
269.41845703125
 30
0.0
 10
476.40625
 20
266.51318359375
 30
0.0
 10
476.40625
 20
266.51318359375
 30
0.0
 10
476.40625
 20
251.5166015625
 30
0.0
 10
476.40625
 20
251.5166015625
 30
0.0
 10
476.40625
 20
251.5166015625
 30
0.0
 10
466.1630859375
 20
251.5166015625
 30
0.0
 10
466.1630859375
 20
251.5166015625
 30
0.0
  0
POLYLINE
  5
61
330
3C
100
AcDbEntity
  8
Layer 1
370
     0
100
AcDb2dPolyline
 66
     1
 10
0.0
 20
0.0
 30
0.0
  0
VERTEX
  5
62
330
61
100
AcDbEntity
  8
Layer 1
370
     0
100
AcDbVertex
100
AcDb2dVertex
 10
449.462890625
 20
267.1904296875
 30
0.0
  0
VERTEX
  5
63
330
61
100
AcDbEntity
  8
Layer 1
370
     0
100
AcDbVertex
100
AcDb2dVertex
 10
449.462890625
 20
251.5166015625
 30
0.0
  0
VERTEX
  5
64
330
61
100
AcDbEntity
  8
Layer 1
370
     0
100
AcDbVertex
100
AcDb2dVertex
 10
438.60546875
 20
251.5166015625
 30
0.0
  0
VERTEX
  5
65
330
61
100
AcDbEntity
  8
Layer 1
370
     0
100
AcDbVertex
100
AcDb2dVertex
 10
449.462890625
 20
267.1904296875
 30
0.0
  0
SEQEND
  5
66
330
61
100
AcDbEntity
  8
Layer 1
370
     0
  0
POLYLINE
  5
67
330
3C
100
AcDbEntity
  8
Layer 1
370
     0
100
AcDb2dPolyline
 66
     1
 10
0.0
 20
0.0
 30
0.0
  0
VERTEX
  5
68
330
67
100
AcDbEntity
  8
Layer 1
370
     0
100
AcDbVertex
100
AcDb2dVertex
 10
451.4228515625
 20
274.7314453125
 30
0.0
  0
VERTEX
  5
69
330
67
100
AcDbEntity
  8
Layer 1
370
     0
100
AcDbVertex
100
AcDb2dVertex
 10
435.28515625
 20
251.5166015625
 30
0.0
  0
VERTEX
  5
6A
330
67
100
AcDbEntity
  8
Layer 1
370
     0
100
AcDbVertex
100
AcDb2dVertex
 10
423.1083984375
 20
251.5166015625
 30
0.0
  0
VERTEX
  5
6B
330
67
100
AcDbEntity
  8
Layer 1
370
     0
100
AcDbVertex
100
AcDb2dVertex
 10
439.193359375
 20
274.7314453125
 30
0.0
  0
VERTEX
  5
6C
330
67
100
AcDbEntity
  8
Layer 1
370
     0
100
AcDbVertex
100
AcDb2dVertex
 10
451.4228515625
 20
274.7314453125
 30
0.0
  0
SEQEND
  5
6D
330
67
100
AcDbEntity
  8
Layer 1
370
     0
  0
POLYLINE
  5
6E
330
3C
100
AcDbEntity
  8
Layer 1
370
     0
100
AcDb2dPolyline
 66
     1
 10
0.0
 20
0.0
 30
0.0
  0
VERTEX
  5
6F
330
6E
100
AcDbEntity
  8
Layer 1
370
     0
100
AcDbVertex
100
AcDb2dVertex
 10
426.1748046875
 20
260.59716796875
 30
0.0
  0
VERTEX
  5
70
330
6E
100
AcDbEntity
  8
Layer 1
370
     0
100
AcDbVertex
100
AcDb2dVertex
 10
426.1748046875
 20
274.7314453125
 30
0.0
  0
VERTEX
  5
71
330
6E
100
AcDbEntity
  8
Layer 1
370
     0
100
AcDbVertex
100
AcDb2dVertex
 10
435.9248046875
 20
274.7314453125
 30
0.0
  0
VERTEX
  5
72
330
6E
100
AcDbEntity
  8
Layer 1
370
     0
100
AcDbVertex
100
AcDb2dVertex
 10
426.1748046875
 20
260.59716796875
 30
0.0
  0
SEQEND
  5
73
330
6E
100
AcDbEntity
  8
Layer 1
370
     0
  0
POLYLINE
  5
74
330
3C
100
AcDbEntity
  8
Layer 1
370
     0
100
AcDb2dPolyline
 66
     1
 10
0.0
 20
0.0
 30
0.0
  0
VERTEX
  5
75
330
74
100
AcDbEntity
  8
Layer 1
370
     0
100
AcDbVertex
100
AcDb2dVertex
 10
422.4931640625
 20
251.5166015625
 30
0.0
  0
VERTEX
  5
76
330
74
100
AcDbEntity
  8
Layer 1
370
     0
100
AcDbVertex
100
AcDb2dVertex
 10
411.9951171875
 20
251.5166015625
 30
0.0
  0
VERTEX
  5
77
330
74
100
AcDbEntity
  8
Layer 1
370
     0
100
AcDbVertex
100
AcDb2dVertex
 10
411.9951171875
 20
274.7314453125
 30
0.0
  0
VERTEX
  5
78
330
74
100
AcDbEntity
  8
Layer 1
370
     0
100
AcDbVertex
100
AcDb2dVertex
 10
422.4931640625
 20
274.7314453125
 30
0.0
  0
VERTEX
  5
79
330
74
100
AcDbEntity
  8
Layer 1
370
     0
100
AcDbVertex
100
AcDb2dVertex
 10
422.4931640625
 20
251.5166015625
 30
0.0
  0
SEQEND
  5
7A
330
74
100
AcDbEntity
  8
Layer 1
370
     0
  0
SPLINE
  5
7B
330
3C
100
AcDbEntity
  8
Layer 1
370
     0
100
AcDbSpline
210
0.0
220
0.0
230
1.0
 70
    11
 71
     3
 72
    29
 73
    25
 74
     0
 42
0.0000000001
 43
0.0000000001
 40
0.0
 40
0.0
 40
0.0
 40
0.0
 40
1.0
 40
1.0
 40
1.0
 40
2.0
 40
2.0
 40
2.0
 40
3.0
 40
3.0
 40
3.0
 40
4.0
 40
4.0
 40
4.0
 40
5.0
 40
5.0
 40
5.0
 40
6.0
 40
6.0
 40
6.0
 40
7.0
 40
7.0
 40
7.0
 40
8.0
 40
8.0
 40
8.0
 40
8.0
 10
422.958984375
 20
280.42138671875
 30
0.0
 10
422.958984375
 20
279.2841796875
 30
0.0
 10
422.3974609375
 20
278.2978515625
 30
0.0
 10
421.28125
 20
277.46240234375
 30
0.0
 10
420.166015625
 20
276.62841796875
 30
0.0
 10
418.8134765625
 20
276.2060546875
 30
0.0
 10
417.2138671875
 20
276.2060546875
 30
0.0
 10
415.640625
 20
276.2060546875
 30
0.0
 10
414.2958984375
 20
276.62060546875
 30
0.0
 10
413.1904296875
 20
277.45556640625
 30
0.0
 10
412.0830078125
 20
278.28369140625
 30
0.0
 10
411.5302734375
 20
279.26953125
 30
0.0
 10
411.5302734375
 20
280.42138671875
 30
0.0
 10
411.5302734375
 20
281.53369140625
 30
0.0
 10
412.0830078125
 20
282.49658203125
 30
0.0
 10
413.1904296875
 20
283.3115234375
 30
0.0
 10
414.2958984375
 20
284.1162109375
 30
0.0
 10
415.640625
 20
284.5224609375
 30
0.0
 10
417.2138671875
 20
284.5224609375
 30
0.0
 10
418.794921875
 20
284.5224609375
 30
0.0
 10
420.1484375
 20
284.1162109375
 30
0.0
 10
421.271484375
 20
283.294921875
 30
0.0
 10
422.3974609375
 20
282.484375
 30
0.0
 10
422.958984375
 20
281.51904296875
 30
0.0
 10
422.958984375
 20
280.42138671875
 30
0.0
  0
POLYLINE
  5
7C
330
3C
100
AcDbEntity
  8
Layer 1
370
     0
100
AcDb2dPolyline
 66
     1
 10
0.0
 20
0.0
 30
0.0
  0
VERTEX
  5
7D
330
7C
100
AcDbEntity
  8
Layer 1
370
     0
100
AcDbVertex
100
AcDb2dVertex
 10
406.8740234375
 20
274.7314453125
 30
0.0
  0
VERTEX
  5
7E
330
7C
100
AcDbEntity
  8
Layer 1
370
     0
100
AcDbVertex
100
AcDb2dVertex
 10
410.529296875
 20
274.7314453125
 30
0.0
  0
VERTEX
  5
7F
330
7C
100
AcDbEntity
  8
Layer 1
370
     0
100
AcDbVertex
100
AcDb2dVertex
 10
410.529296875
 20
271.55517578125
 30
0.0
  0
VERTEX
  5
80
330
7C
100
AcDbEntity
  8
Layer 1
370
     0
100
AcDbVertex
100
AcDb2dVertex
 10
406.8740234375
 20
271.55517578125
 30
0.0
  0
VERTEX
  5
81
330
7C
100
AcDbEntity
  8
Layer 1
370
     0
100
AcDbVertex
100
AcDb2dVertex
 10
406.8740234375
 20
251.5166015625
 30
0.0
  0
VERTEX
  5
82
330
7C
100
AcDbEntity
  8
Layer 1
370
     0
100
AcDbVertex
100
AcDb2dVertex
 10
396.40234375
 20
251.5166015625
 30
0.0
  0
VERTEX
  5
83
330
7C
100
AcDbEntity
  8
Layer 1
370
     0
100
AcDbVertex
100
AcDb2dVertex
 10
396.40234375
 20
271.55517578125
 30
0.0
  0
VERTEX
  5
84
330
7C
100
AcDbEntity
  8
Layer 1
370
     0
100
AcDbVertex
100
AcDb2dVertex
 10
392.6962890625
 20
271.55517578125
 30
0.0
  0
VERTEX
  5
85
330
7C
100
AcDbEntity
  8
Layer 1
370
     0
100
AcDbVertex
100
AcDb2dVertex
 10
406.8740234375
 20
284.1240234375
 30
0.0
  0
VERTEX
  5
86
330
7C
100
AcDbEntity
  8
Layer 1
370
     0
100
AcDbVertex
100
AcDb2dVertex
 10
406.8740234375
 20
274.7314453125
 30
0.0
  0
SEQEND
  5
87
330
7C
100
AcDbEntity
  8
Layer 1
370
     0
  0
SPLINE
  5
88
330
3C
100
AcDbEntity
  8
Layer 1
370
     0
100
AcDbSpline
210
0.0
220
0.0
230
1.0
 70
    11
 71
     3
 72
    29
 73
    25
 74
     0
 42
0.0000000001
 43
0.0000000001
 40
0.0
 40
0.0
 40
0.0
 40
0.0
 40
1.0
 40
1.0
 40
1.0
 40
2.0
 40
2.0
 40
2.0
 40
3.0
 40
3.0
 40
3.0
 40
4.0
 40
4.0
 40
4.0
 40
5.0
 40
5.0
 40
5.0
 40
6.0
 40
6.0
 40
6.0
 40
7.0
 40
7.0
 40
7.0
 40
8.0
 40
8.0
 40
8.0
 40
8.0
 10
392.9765625
 20
270.65380859375
 30
0.0
 10
392.9765625
 20
269.41845703125
 30
0.0
 10
392.458984375
 20
268.36474609375
 30
0.0
 10
391.421875
 20
267.48583984375
 30
0.0
 10
390.3857421875
 20
266.60400390625
 30
0.0
 10
389.1484375
 20
266.1611328125
 30
0.0
 10
387.70703125
 20
266.1611328125
 30
0.0
 10
386.2841796875
 20
266.1611328125
 30
0.0
 10
385.0537109375
 20
266.60400390625
 30
0.0
 10
384.0263671875
 20
267.49169921875
 30
0.0
 10
382.9970703125
 20
268.37890625
 30
0.0
 10
382.478515625
 20
269.43359375
 30
0.0
 10
382.478515625
 20
270.65380859375
 30
0.0
 10
382.478515625
 20
271.86474609375
 30
0.0
 10
382.9970703125
 20
272.91015625
 30
0.0
 10
384.0341796875
 20
273.7978515625
 30
0.0
 10
385.0703125
 20
274.68603515625
 30
0.0
 10
386.291015625
 20
275.1298828125
 30
0.0
 10
387.70703125
 20
275.1298828125
 30
0.0
 10
389.12890625
 20
275.1298828125
 30
0.0
 10
390.3583984375
 20
274.68603515625
 30
0.0
 10
391.4033203125
 20
273.8056640625
 30
0.0
 10
392.4501953125
 20
272.92578125
 30
0.0
 10
392.9765625
 20
271.8798828125
 30
0.0
 10
392.9765625
 20
270.65380859375
 30
0.0
  0
POLYLINE
  5
89
330
3C
100
AcDbEntity
  8
Layer 1
370
     0
100
AcDb2dPolyline
 66
     1
 10
0.0
 20
0.0
 30
0.0
  0
VERTEX
  5
8A
330
89
100
AcDbEntity
  8
Layer 1
370
     0
100
AcDbVertex
100
AcDb2dVertex
 10
381.267578125
 20
274.7314453125
 30
0.0
  0
VERTEX
  5
8B
330
89
100
AcDbEntity
  8
Layer 1
370
     0
100
AcDbVertex
100
AcDb2dVertex
 10
381.267578125
 20
251.5166015625
 30
0.0
  0
VERTEX
  5
8C
330
89
100
AcDbEntity
  8
Layer 1
370
     0
100
AcDbVertex
100
AcDb2dVertex
 10
370.76953125
 20
251.5166015625
 30
0.0
  0
VERTEX
  5
8D
330
89
100
AcDbEntity
  8
Layer 1
370
     0
100
AcDbVertex
100
AcDb2dVertex
 10
370.76953125
 20
274.7314453125
 30
0.0
  0
VERTEX
  5
8E
330
89
100
AcDbEntity
  8
Layer 1
370
     0
100
AcDbVertex
100
AcDb2dVertex
 10
381.267578125
 20
274.7314453125
 30
0.0
  0
SEQEND
  5
8F
330
89
100
AcDbEntity
  8
Layer 1
370
     0
  0
SPLINE
  5
90
330
3C
100
AcDbEntity
  8
Layer 1
370
     0
100
AcDbSpline
210
0.0
220
0.0
230
1.0
 70
    11
 71
     3
 72
    32
 73
    28
 74
     0
 42
0.0000000001
 43
0.0000000001
 40
0.0
 40
0.0
 40
0.0
 40
0.0
 40
1.0
 40
1.0
 40
1.0
 40
2.0
 40
2.0
 40
2.0
 40
3.0
 40
3.0
 40
3.0
 40
4.0
 40
4.0
 40
4.0
 40
5.0
 40
5.0
 40
5.0
 40
6.0
 40
6.0
 40
6.0
 40
7.0
 40
7.0
 40
7.0
 40
8.0
 40
8.0
 40
8.0
 40
9.0
 40
9.0
 40
9.0
 40
9.0
 10
353.6728515625
 20
251.5166015625
 30
0.0
 10
353.515625
 20
251.5009765625
 30
0.0
 10
353.33984375
 20
251.4921875
 30
0.0
 10
353.1455078125
 20
251.4853515625
 30
0.0
 10
352.953125
 20
251.47802734375
 30
0.0
 10
352.671875
 20
251.4697265625
 30
0.0
 10
352.3115234375
 20
251.4697265625
 30
0.0
 10
349.2373046875
 20
251.4697265625
 30
0.0
 10
346.8916015625
 20
252.02734375
 30
0.0
 10
345.275390625
 20
253.1474609375
 30
0.0
 10
343.6513671875
 20
254.263671875
 30
0.0
 10
342.841796875
 20
255.87353515625
 30
0.0
 10
342.841796875
 20
257.98046875
 30
0.0
 10
342.841796875
 20
260.10986328125
 30
0.0
 10
343.640625
 20
261.7353515625
 30
0.0
 10
345.2490234375
 20
262.84912109375
 30
0.0
 10
346.8466796875
 20
263.96875
 30
0.0
 10
349.1845703125
 20
264.52783203125
 30
0.0
 10
352.2587890625
 20
264.52783203125
 30
0.0
 10
352.6533203125
 20
264.52783203125
 30
0.0
 10
352.9443359375
 20
264.52783203125
 30
0.0
 10
353.1376953125
 20
264.51904296875
 30
0.0
 10
353.322265625
 20
264.51025390625
 30
0.0
 10
353.4970703125
 20
264.49755859375
 30
0.0
 10
353.6728515625
 20
264.4814453125
 30
0.0
 10
353.6728515625
 20
264.4814453125
 30
0.0
 10
353.6728515625
 20
251.5166015625
 30
0.0
 10
353.6728515625
 20
251.5166015625
 30
0.0
  0
SPLINE
  5
91
330
3C
100
AcDbEntity
  8
Layer 1
370
     0
100
AcDbSpline
210
0.0
220
0.0
230
1.0
 70
    11
 71
     3
 72
    29
 73
    25
 74
     0
 42
0.0000000001
 43
0.0000000001
 40
0.0
 40
0.0
 40
0.0
 40
0.0
 40
1.0
 40
1.0
 40
1.0
 40
2.0
 40
2.0
 40
2.0
 40
3.0
 40
3.0
 40
3.0
 40
4.0
 40
4.0
 40
4.0
 40
5.0
 40
5.0
 40
5.0
 40
6.0
 40
6.0
 40
6.0
 40
7.0
 40
7.0
 40
7.0
 40
8.0
 40
8.0
 40
8.0
 40
8.0
 10
344.1513671875
 20
270.1259765625
 30
0.0
 10
344.1513671875
 20
271.37548828125
 30
0.0
 10
344.677734375
 20
272.4580078125
 30
0.0
 10
345.732421875
 20
273.36962890625
 30
0.0
 10
346.794921875
 20
274.27978515625
 30
0.0
 10
348.0595703125
 20
274.7314453125
 30
0.0
 10
349.5263671875
 20
274.7314453125
 30
0.0
 10
350.9853515625
 20
274.7314453125
 30
0.0
 10
352.251953125
 20
274.27978515625
 30
0.0
 10
353.3134765625
 20
273.36962890625
 30
0.0
 10
354.376953125
 20
272.4580078125
 30
0.0
 10
354.904296875
 20
271.37548828125
 30
0.0
 10
354.904296875
 20
270.1259765625
 30
0.0
 10
354.904296875
 20
268.845703125
 30
0.0
 10
354.376953125
 20
267.75439453125
 30
0.0
 10
353.322265625
 20
266.84521484375
 30
0.0
 10
352.2685546875
 20
265.93359375
 30
0.0
 10
351.001953125
 20
265.47607421875
 30
0.0
 10
349.5263671875
 20
265.47607421875
 30
0.0
 10
348.0439453125
 20
265.47607421875
 30
0.0
 10
346.76953125
 20
265.93359375
 30
0.0
 10
345.72265625
 20
266.84521484375
 30
0.0
 10
344.677734375
 20
267.75439453125
 30
0.0
 10
344.1513671875
 20
268.845703125
 30
0.0
 10
344.1513671875
 20
270.1259765625
 30
0.0
  0
SPLINE
  5
92
330
3C
100
AcDbEntity
  8
Layer 1
370
     0
100
AcDbSpline
210
0.0
220
0.0
230
1.0
 70
    11
 71
     3
 72
    32
 73
    28
 74
     0
 42
0.0000000001
 43
0.0000000001
 40
0.0
 40
0.0
 40
0.0
 40
0.0
 40
1.0
 40
1.0
 40
1.0
 40
2.0
 40
2.0
 40
2.0
 40
3.0
 40
3.0
 40
3.0
 40
4.0
 40
4.0
 40
4.0
 40
5.0
 40
5.0
 40
5.0
 40
6.0
 40
6.0
 40
6.0
 40
7.0
 40
7.0
 40
7.0
 40
8.0
 40
8.0
 40
8.0
 40
9.0
 40
9.0
 40
9.0
 40
9.0
 10
356.8349609375
 20
251.5166015625
 30
0.0
 10
356.8349609375
 20
251.5166015625
 30
0.0
 10
356.8349609375
 20
268.1396484375
 30
0.0
 10
356.8349609375
 20
268.1396484375
 30
0.0
 10
356.8349609375
 20
270.00537109375
 30
0.0
 10
356.5986328125
 20
271.3896484375
 30
0.0
 10
356.1328125
 20
272.2861328125
 30
0.0
 10
355.658203125
 20
273.18212890625
 30
0.0
 10
354.82421875
 20
273.986328125
 30
0.0
 10
353.62109375
 20
274.68603515625
 30
0.0
 10
354.7197265625
 20
274.8515625
 30
0.0
 10
355.6328125
 20
274.96484375
 30
0.0
 10
356.3525390625
 20
275.0322265625
 30
0.0
 10
357.0732421875
 20
275.1015625
 30
0.0
 10
357.6982421875
 20
275.1298828125
 30
0.0
 10
358.22265625
 20
275.1298828125
 30
0.0
 10
361.2099609375
 20
275.1298828125
 30
0.0
 10
363.4345703125
 20
274.42333984375
 30
0.0
 10
364.8916015625
 20
273.0
 30
0.0
 10
366.3505859375
 20
271.5859375
 30
0.0
 10
367.0791015625
 20
269.41845703125
 30
0.0
 10
367.0791015625
 20
266.51318359375
 30
0.0
 10
367.0791015625
 20
266.51318359375
 30
0.0
 10
367.0791015625
 20
251.5166015625
 30
0.0
 10
367.0791015625
 20
251.5166015625
 30
0.0
 10
367.0791015625
 20
251.5166015625
 30
0.0
 10
356.8349609375
 20
251.5166015625
 30
0.0
 10
356.8349609375
 20
251.5166015625
 30
0.0
  0
POLYLINE
  5
93
330
3C
100
AcDbEntity
  8
Layer 1
370
     0
100
AcDb2dPolyline
 66
     1
 10
0.0
 20
0.0
 30
0.0
  0
VERTEX
  5
94
330
93
100
AcDbEntity
  8
Layer 1
370
     0
100
AcDbVertex
100
AcDb2dVertex
 10
326.703125
 20
242.296875
 30
0.0
  0
VERTEX
  5
95
330
93
100
AcDbEntity
  8
Layer 1
370
     0
100
AcDbVertex
100
AcDb2dVertex
 10
316.2060546875
 20
242.296875
 30
0.0
  0
VERTEX
  5
96
330
93
100
AcDbEntity
  8
Layer 1
370
     0
100
AcDbVertex
100
AcDb2dVertex
 10
316.2060546875
 20
274.7314453125
 30
0.0
  0
VERTEX
  5
97
330
93
100
AcDbEntity
  8
Layer 1
370
     0
100
AcDbVertex
100
AcDb2dVertex
 10
326.703125
 20
274.7314453125
 30
0.0
  0
VERTEX
  5
98
330
93
100
AcDbEntity
  8
Layer 1
370
     0
100
AcDbVertex
100
AcDb2dVertex
 10
326.703125
 20
242.296875
 30
0.0
  0
SEQEND
  5
99
330
93
100
AcDbEntity
  8
Layer 1
370
     0
  0
SPLINE
  5
9A
330
3C
100
AcDbEntity
  8
Layer 1
370
     0
100
AcDbSpline
210
0.0
220
0.0
230
1.0
 70
    11
 71
     3
 72
    20
 73
    16
 74
     0
 42
0.0000000001
 43
0.0000000001
 40
0.0
 40
0.0
 40
0.0
 40
0.0
 40
1.0
 40
1.0
 40
1.0
 40
2.0
 40
2.0
 40
2.0
 40
3.0
 40
3.0
 40
3.0
 40
4.0
 40
4.0
 40
4.0
 40
5.0
 40
5.0
 40
5.0
 40
5.0
 10
329.6103515625
 20
251.5166015625
 30
0.0
 10
329.6103515625
 20
251.5166015625
 30
0.0
 10
329.6103515625
 20
274.7314453125
 30
0.0
 10
329.6103515625
 20
274.7314453125
 30
0.0
 10
333.3896484375
 20
274.40771484375
 30
0.0
 10
336.3056640625
 20
273.23388671875
 30
0.0
 10
338.3603515625
 20
271.20166015625
 30
0.0
 10
340.42578125
 20
269.177734375
 30
0.0
 10
341.453125
 20
266.4609375
 30
0.0
 10
341.453125
 20
263.0673828125
 30
0.0
 10
341.453125
 20
259.71875
 30
0.0
 10
340.4091796875
 20
257.0234375
 30
0.0
 10
338.3271484375
 20
255.0009765625
 30
0.0
 10
336.244140625
 20
252.96875
 30
0.0
 10
333.3359375
 20
251.80908203125
 30
0.0
 10
329.6103515625
 20
251.5166015625
 30
0.0
  0
POLYLINE
  5
9B
330
3C
100
AcDbEntity
  8
Layer 1
370
     0
100
AcDb2dPolyline
 66
     1
 10
0.0
 20
0.0
 30
0.0
  0
VERTEX
  5
9C
330
9B
100
AcDbEntity
  8
Layer 1
370
     0
100
AcDbVertex
100
AcDb2dVertex
 10
296.77490234375
 20
251.5166015625
 30
0.0
  0
VERTEX
  5
9D
330
9B
100
AcDbEntity
  8
Layer 1
370
     0
100
AcDbVertex
100
AcDb2dVertex
 10
286.27587890625
 20
251.5166015625
 30
0.0
  0
VERTEX
  5
9E
330
9B
100
AcDbEntity
  8
Layer 1
370
     0
100
AcDbVertex
100
AcDb2dVertex
 10
286.27587890625
 20
274.7314453125
 30
0.0
  0
VERTEX
  5
9F
330
9B
100
AcDbEntity
  8
Layer 1
370
     0
100
AcDbVertex
100
AcDb2dVertex
 10
296.77490234375
 20
274.7314453125
 30
0.0
  0
VERTEX
  5
A0
330
9B
100
AcDbEntity
  8
Layer 1
370
     0
100
AcDbVertex
100
AcDb2dVertex
 10
296.77490234375
 20
251.5166015625
 30
0.0
  0
SEQEND
  5
A1
330
9B
100
AcDbEntity
  8
Layer 1
370
     0
  0
SPLINE
  5
A2
330
3C
100
AcDbEntity
  8
Layer 1
370
     0
100
AcDbSpline
210
0.0
220
0.0
230
1.0
 70
    11
 71
     3
 72
    29
 73
    25
 74
     0
 42
0.0000000001
 43
0.0000000001
 40
0.0
 40
0.0
 40
0.0
 40
0.0
 40
1.0
 40
1.0
 40
1.0
 40
2.0
 40
2.0
 40
2.0
 40
3.0
 40
3.0
 40
3.0
 40
4.0
 40
4.0
 40
4.0
 40
5.0
 40
5.0
 40
5.0
 40
6.0
 40
6.0
 40
6.0
 40
7.0
 40
7.0
 40
7.0
 40
8.0
 40
8.0
 40
8.0
 40
8.0
 10
297.23779296875
 20
280.42138671875
 30
0.0
 10
297.23779296875
 20
279.2841796875
 30
0.0
 10
296.67822265625
 20
278.2978515625
 30
0.0
 10
295.56103515625
 20
277.46240234375
 30
0.0
 10
294.44677734375
 20
276.62841796875
 30
0.0
 10
293.09228515625
 20
276.2060546875
 30
0.0
 10
291.494140625
 20
276.2060546875
 30
0.0
 10
289.92138671875
 20
276.2060546875
 30
0.0
 10
288.5771484375
 20
276.62060546875
 30
0.0
 10
287.4697265625
 20
277.45556640625
 30
0.0
 10
286.3642578125
 20
278.28369140625
 30
0.0
 10
285.81005859375
 20
279.26953125
 30
0.0
 10
285.81005859375
 20
280.42138671875
 30
0.0
 10
285.81005859375
 20
281.53369140625
 30
0.0
 10
286.3642578125
 20
282.49658203125
 30
0.0
 10
287.4697265625
 20
283.3115234375
 30
0.0
 10
288.5771484375
 20
284.1162109375
 30
0.0
 10
289.92138671875
 20
284.5224609375
 30
0.0
 10
291.494140625
 20
284.5224609375
 30
0.0
 10
293.07421875
 20
284.5224609375
 30
0.0
 10
294.427734375
 20
284.1162109375
 30
0.0
 10
295.5537109375
 20
283.294921875
 30
0.0
 10
296.67822265625
 20
282.484375
 30
0.0
 10
297.23779296875
 20
281.51904296875
 30
0.0
 10
297.23779296875
 20
280.42138671875
 30
0.0
  0
POLYLINE
  5
A3
330
3C
100
AcDbEntity
  8
Layer 1
370
     0
100
AcDb2dPolyline
 66
     1
 10
0.0
 20
0.0
 30
0.0
  0
VERTEX
  5
A4
330
A3
100
AcDbEntity
  8
Layer 1
370
     0
100
AcDbVertex
100
AcDb2dVertex
 10
279.44970703125
 20
260.8173828125
 30
0.0
  0
VERTEX
  5
A5
330
A3
100
AcDbEntity
  8
Layer 1
370
     0
100
AcDbVertex
100
AcDb2dVertex
 10
273.58056640625
 20
274.7314453125
 30
0.0
  0
VERTEX
  5
A6
330
A3
100
AcDbEntity
  8
Layer 1
370
     0
100
AcDbVertex
100
AcDb2dVertex
 10
285.75830078125
 20
274.7314453125
 30
0.0
  0
VERTEX
  5
A7
330
A3
100
AcDbEntity
  8
Layer 1
370
     0
100
AcDbVertex
100
AcDb2dVertex
 10
279.44970703125
 20
260.8173828125
 30
0.0
  0
SEQEND
  5
A8
330
A3
100
AcDbEntity
  8
Layer 1
370
     0
  0
POLYLINE
  5
A9
330
3C
100
AcDbEntity
  8
Layer 1
370
     0
100
AcDb2dPolyline
 66
     1
 10
0.0
 20
0.0
 30
0.0
  0
VERTEX
  5
AA
330
A9
100
AcDbEntity
  8
Layer 1
370
     0
100
AcDbVertex
100
AcDb2dVertex
 10
275.53955078125
 20
251.5166015625
 30
0.0
  0
VERTEX
  5
AB
330
A9
100
AcDbEntity
  8
Layer 1
370
     0
100
AcDbVertex
100
AcDb2dVertex
 10
269.0576171875
 20
251.5166015625
 30
0.0
  0
VERTEX
  5
AC
330
A9
100
AcDbEntity
  8
Layer 1
370
     0
100
AcDbVertex
100
AcDb2dVertex
 10
259.1474609375
 20
274.7314453125
 30
0.0
  0
VERTEX
  5
AD
330
A9
100
AcDbEntity
  8
Layer 1
370
     0
100
AcDbVertex
100
AcDb2dVertex
 10
270.6484375
 20
274.7314453125
 30
0.0
  0
VERTEX
  5
AE
330
A9
100
AcDbEntity
  8
Layer 1
370
     0
100
AcDbVertex
100
AcDb2dVertex
 10
277.95703125
 20
257.1591796875
 30
0.0
  0
VERTEX
  5
AF
330
A9
100
AcDbEntity
  8
Layer 1
370
     0
100
AcDbVertex
100
AcDb2dVertex
 10
275.53955078125
 20
251.5166015625
 30
0.0
  0
SEQEND
  5
B0
330
A9
100
AcDbEntity
  8
Layer 1
370
     0
  0
SPLINE
  5
B1
330
3C
100
AcDbEntity
  8
Layer 1
370
     0
100
AcDbSpline
210
0.0
220
0.0
230
1.0
 70
    11
 71
     3
 72
    29
 73
    25
 74
     0
 42
0.0000000001
 43
0.0000000001
 40
0.0
 40
0.0
 40
0.0
 40
0.0
 40
1.0
 40
1.0
 40
1.0
 40
2.0
 40
2.0
 40
2.0
 40
3.0
 40
3.0
 40
3.0
 40
4.0
 40
4.0
 40
4.0
 40
5.0
 40
5.0
 40
5.0
 40
6.0
 40
6.0
 40
6.0
 40
7.0
 40
7.0
 40
7.0
 40
8.0
 40
8.0
 40
8.0
 40
8.0
 10
259.68359375
 20
270.65380859375
 30
0.0
 10
259.68359375
 20
269.41845703125
 30
0.0
 10
259.166015625
 20
268.36474609375
 30
0.0
 10
258.12841796875
 20
267.48583984375
 30
0.0
 10
257.09326171875
 20
266.60400390625
 30
0.0
 10
255.85498046875
 20
266.1611328125
 30
0.0
 10
254.41357421875
 20
266.1611328125
 30
0.0
 10
252.990234375
 20
266.1611328125
 30
0.0
 10
251.7607421875
 20
266.60400390625
 30
0.0
 10
250.73193359375
 20
267.49169921875
 30
0.0
 10
249.705078125
 20
268.37890625
 30
0.0
 10
249.1865234375
 20
269.43359375
 30
0.0
 10
249.1865234375
 20
270.65380859375
 30
0.0
 10
249.1865234375
 20
271.86474609375
 30
0.0
 10
249.705078125
 20
272.91015625
 30
0.0
 10
250.74169921875
 20
273.7978515625
 30
0.0
 10
251.77734375
 20
274.68603515625
 30
0.0
 10
252.998046875
 20
275.1298828125
 30
0.0
 10
254.41357421875
 20
275.1298828125
 30
0.0
 10
255.8359375
 20
275.1298828125
 30
0.0
 10
257.06640625
 20
274.68603515625
 30
0.0
 10
258.11181640625
 20
273.8056640625
 30
0.0
 10
259.1572265625
 20
272.92578125
 30
0.0
 10
259.68359375
 20
271.8798828125
 30
0.0
 10
259.68359375
 20
270.65380859375
 30
0.0
  0
POLYLINE
  5
B2
330
3C
100
AcDbEntity
  8
Layer 1
370
     0
100
AcDb2dPolyline
 66
     1
 10
0.0
 20
0.0
 30
0.0
  0
VERTEX
  5
B3
330
B2
100
AcDbEntity
  8
Layer 1
370
     0
100
AcDbVertex
100
AcDb2dVertex
 10
247.97412109375
 20
274.7314453125
 30
0.0
  0
VERTEX
  5
B4
330
B2
100
AcDbEntity
  8
Layer 1
370
     0
100
AcDbVertex
100
AcDb2dVertex
 10
247.97412109375
 20
251.5166015625
 30
0.0
  0
VERTEX
  5
B5
330
B2
100
AcDbEntity
  8
Layer 1
370
     0
100
AcDbVertex
100
AcDb2dVertex
 10
237.47607421875
 20
251.5166015625
 30
0.0
  0
VERTEX
  5
B6
330
B2
100
AcDbEntity
  8
Layer 1
370
     0
100
AcDbVertex
100
AcDb2dVertex
 10
237.47607421875
 20
274.7314453125
 30
0.0
  0
VERTEX
  5
B7
330
B2
100
AcDbEntity
  8
Layer 1
370
     0
100
AcDbVertex
100
AcDb2dVertex
 10
247.97412109375
 20
274.7314453125
 30
0.0
  0
SEQEND
  5
B8
330
B2
100
AcDbEntity
  8
Layer 1
370
     0
  0
POLYLINE
  5
B9
330
3C
100
AcDbEntity
  8
Layer 1
370
     0
100
AcDb2dPolyline
 66
     1
 10
0.0
 20
0.0
 30
0.0
  0
VERTEX
  5
BA
330
B9
100
AcDbEntity
  8
Layer 1
370
     0
100
AcDbVertex
100
AcDb2dVertex
 10
220.51220703125
 20
242.296875
 30
0.0
  0
VERTEX
  5
BB
330
B9
100
AcDbEntity
  8
Layer 1
370
     0
100
AcDbVertex
100
AcDb2dVertex
 10
210.0146484375
 20
242.296875
 30
0.0
  0
VERTEX
  5
BC
330
B9
100
AcDbEntity
  8
Layer 1
370
     0
100
AcDbVertex
100
AcDb2dVertex
 10
210.0146484375
 20
274.7314453125
 30
0.0
  0
VERTEX
  5
BD
330
B9
100
AcDbEntity
  8
Layer 1
370
     0
100
AcDbVertex
100
AcDb2dVertex
 10
220.51220703125
 20
274.7314453125
 30
0.0
  0
VERTEX
  5
BE
330
B9
100
AcDbEntity
  8
Layer 1
370
     0
100
AcDbVertex
100
AcDb2dVertex
 10
220.51220703125
 20
242.296875
 30
0.0
  0
SEQEND
  5
BF
330
B9
100
AcDbEntity
  8
Layer 1
370
     0
  0
SPLINE
  5
C0
330
3C
100
AcDbEntity
  8
Layer 1
370
     0
100
AcDbSpline
210
0.0
220
0.0
230
1.0
 70
    11
 71
     3
 72
    20
 73
    16
 74
     0
 42
0.0000000001
 43
0.0000000001
 40
0.0
 40
0.0
 40
0.0
 40
0.0
 40
1.0
 40
1.0
 40
1.0
 40
2.0
 40
2.0
 40
2.0
 40
3.0
 40
3.0
 40
3.0
 40
4.0
 40
4.0
 40
4.0
 40
5.0
 40
5.0
 40
5.0
 40
5.0
 10
223.42041015625
 20
251.5166015625
 30
0.0
 10
223.42041015625
 20
251.5166015625
 30
0.0
 10
223.42041015625
 20
274.7314453125
 30
0.0
 10
223.42041015625
 20
274.7314453125
 30
0.0
 10
227.197265625
 20
274.40771484375
 30
0.0
 10
230.11279296875
 20
273.23388671875
 30
0.0
 10
232.1708984375
 20
271.20166015625
 30
0.0
 10
234.2353515625
 20
269.177734375
 30
0.0
 10
235.26123046875
 20
266.4609375
 30
0.0
 10
235.26123046875
 20
263.0673828125
 30
0.0
 10
235.26123046875
 20
259.71875
 30
0.0
 10
234.216796875
 20
257.0234375
 30
0.0
 10
232.13427734375
 20
255.0009765625
 30
0.0
 10
230.052734375
 20
252.96875
 30
0.0
 10
227.1435546875
 20
251.80908203125
 30
0.0
 10
223.42041015625
 20
251.5166015625
 30
0.0
  0
HATCH
  5
C1
330
3C
100
AcDbEntity
  8
Layer 1
 62
   240
420
 15539236
100
AcDbHatch
 10
0.0
 20
0.0
 30
0.0
210
0.0
220
0.0
230
1.0
  2
SOLID
 70
     1
 71
     0
 91
       26
 92
        1
 93
        1
 72
     4
 94
        3
 73
     0
 74
     1
 95
       23
 96
       19
 40
0.0
 40
0.0
 40
0.0
 40
0.0
 40
1.0
 40
1.0
 40
1.0
 40
2.0
 40
2.0
 40
2.0
 40
3.0
 40
3.0
 40
3.0
 40
4.0
 40
4.0
 40
4.0
 40
5.0
 40
5.0
 40
5.0
 40
6.0
 40
6.0
 40
6.0
 40
6.0
 10
493.501953125
 20
274.7314453125
 10
493.501953125
 20
274.7314453125
 10
494.7666015625
 20
274.7314453125
 10
494.7666015625
 20
274.7314453125
 10
498.4130859375
 20
274.7314453125
 10
500.86328125
 20
274.16650390625
 10
502.111328125
 20
273.03076171875
 10
503.349609375
 20
271.90185546875
 10
503.97265625
 20
269.6357421875
 10
503.97265625
 20
266.24365234375
 10
503.97265625
 20
266.24365234375
 10
503.97265625
 20
251.5166015625
 10
503.97265625
 20
251.5166015625
 10
503.97265625
 20
251.5166015625
 10
493.501953125
 20
251.5166015625
 10
493.501953125
 20
251.5166015625
 10
493.501953125
 20
251.5166015625
 10
493.501953125
 20
274.7314453125
 10
493.501953125
 20
274.7314453125
 97
        0
 92
        1
 93
        4
 72
     1
 10
490.5947265625
 20
251.5166015625
 11
480.0966796875
 21
251.5166015625
 72
     1
 10
480.0966796875
 20
251.5166015625
 11
480.0966796875
 21
274.7314453125
 72
     1
 10
480.0966796875
 20
274.7314453125
 11
490.5947265625
 21
274.7314453125
 72
     1
 10
490.5947265625
 20
274.7314453125
 11
490.5947265625
 21
251.5166015625
 97
        0
 92
        1
 93
        1
 72
     4
 94
        3
 73
     0
 74
     1
 95
       32
 96
       28
 40
0.0
 40
0.0
 40
0.0
 40
0.0
 40
1.0
 40
1.0
 40
1.0
 40
2.0
 40
2.0
 40
2.0
 40
3.0
 40
3.0
 40
3.0
 40
4.0
 40
4.0
 40
4.0
 40
5.0
 40
5.0
 40
5.0
 40
6.0
 40
6.0
 40
6.0
 40
7.0
 40
7.0
 40
7.0
 40
8.0
 40
8.0
 40
8.0
 40
9.0
 40
9.0
 40
9.0
 40
9.0
 10
463.0009765625
 20
251.5166015625
 10
462.8427734375
 20
251.5009765625
 10
462.6669921875
 20
251.4921875
 10
462.474609375
 20
251.4853515625
 10
462.2802734375
 20
251.47802734375
 10
461.9990234375
 20
251.4697265625
 10
461.6396484375
 20
251.4697265625
 10
458.5654296875
 20
251.4697265625
 10
456.21875
 20
252.02734375
 10
454.6015625
 20
253.1474609375
 10
452.9765625
 20
254.263671875
 10
452.1689453125
 20
255.87353515625
 10
452.1689453125
 20
257.98046875
 10
452.1689453125
 20
260.10986328125
 10
452.96875
 20
261.7353515625
 10
454.5751953125
 20
262.84912109375
 10
456.1767578125
 20
263.96875
 10
458.51171875
 20
264.52783203125
 10
461.5869140625
 20
264.52783203125
 10
461.9814453125
 20
264.52783203125
 10
462.2724609375
 20
264.52783203125
 10
462.46484375
 20
264.51904296875
 10
462.6484375
 20
264.51025390625
 10
462.82421875
 20
264.49755859375
 10
463.0009765625
 20
264.4814453125
 10
463.0009765625
 20
264.4814453125
 10
463.0009765625
 20
251.5166015625
 10
463.0009765625
 20
251.5166015625
 97
        0
 92
        1
 93
        1
 72
     4
 94
        3
 73
     0
 74
     1
 95
       29
 96
       25
 40
0.0
 40
0.0
 40
0.0
 40
0.0
 40
1.0
 40
1.0
 40
1.0
 40
2.0
 40
2.0
 40
2.0
 40
3.0
 40
3.0
 40
3.0
 40
4.0
 40
4.0
 40
4.0
 40
5.0
 40
5.0
 40
5.0
 40
6.0
 40
6.0
 40
6.0
 40
7.0
 40
7.0
 40
7.0
 40
8.0
 40
8.0
 40
8.0
 40
8.0
 10
453.478515625
 20
270.1259765625
 10
453.478515625
 20
271.37548828125
 10
454.0048828125
 20
272.4580078125
 10
455.0595703125
 20
273.36962890625
 10
456.1220703125
 20
274.27978515625
 10
457.3876953125
 20
274.7314453125
 10
458.85546875
 20
274.7314453125
 10
460.3125
 20
274.7314453125
 10
461.5791015625
 20
274.27978515625
 10
462.6396484375
 20
273.36962890625
 10
463.703125
 20
272.4580078125
 10
464.2294921875
 20
271.37548828125
 10
464.2294921875
 20
270.1259765625
 10
464.2294921875
 20
268.845703125
 10
463.703125
 20
267.75439453125
 10
462.6484375
 20
266.84521484375
 10
461.5947265625
 20
265.93359375
 10
460.3310546875
 20
265.47607421875
 10
458.85546875
 20
265.47607421875
 10
457.369140625
 20
265.47607421875
 10
456.0966796875
 20
265.93359375
 10
455.0498046875
 20
266.84521484375
 10
454.0048828125
 20
267.75439453125
 10
453.478515625
 20
268.845703125
 10
453.478515625
 20
270.1259765625
 97
        0
 92
        1
 93
        1
 72
     4
 94
        3
 73
     0
 74
     1
 95
       32
 96
       28
 40
0.0
 40
0.0
 40
0.0
 40
0.0
 40
1.0
 40
1.0
 40
1.0
 40
2.0
 40
2.0
 40
2.0
 40
3.0
 40
3.0
 40
3.0
 40
4.0
 40
4.0
 40
4.0
 40
5.0
 40
5.0
 40
5.0
 40
6.0
 40
6.0
 40
6.0
 40
7.0
 40
7.0
 40
7.0
 40
8.0
 40
8.0
 40
8.0
 40
9.0
 40
9.0
 40
9.0
 40
9.0
 10
466.1630859375
 20
251.5166015625
 10
466.1630859375
 20
251.5166015625
 10
466.1630859375
 20
268.1396484375
 10
466.1630859375
 20
268.1396484375
 10
466.1630859375
 20
270.00537109375
 10
465.92578125
 20
271.3896484375
 10
465.4599609375
 20
272.2861328125
 10
464.986328125
 20
273.18212890625
 10
464.150390625
 20
273.986328125
 10
462.94921875
 20
274.68603515625
 10
464.0458984375
 20
274.8515625
 10
464.9599609375
 20
274.96484375
 10
465.6796875
 20
275.0322265625
 10
466.4013671875
 20
275.1015625
 10
467.0244140625
 20
275.1298828125
 10
467.5517578125
 20
275.1298828125
 10
470.5380859375
 20
275.1298828125
 10
472.7607421875
 20
274.42333984375
 10
474.2177734375
 20
273.0
 10
475.677734375
 20
271.5859375
 10
476.40625
 20
269.41845703125
 10
476.40625
 20
266.51318359375
 10
476.40625
 20
266.51318359375
 10
476.40625
 20
251.5166015625
 10
476.40625
 20
251.5166015625
 10
476.40625
 20
251.5166015625
 10
466.1630859375
 20
251.5166015625
 10
466.1630859375
 20
251.5166015625
 97
        0
 92
        1
 93
        3
 72
     1
 10
449.462890625
 20
267.1904296875
 11
449.462890625
 21
251.5166015625
 72
     1
 10
449.462890625
 20
251.5166015625
 11
438.60546875
 21
251.5166015625
 72
     1
 10
438.60546875
 20
251.5166015625
 11
449.462890625
 21
267.1904296875
 97
        0
 92
        1
 93
        4
 72
     1
 10
451.4228515625
 20
274.7314453125
 11
435.28515625
 21
251.5166015625
 72
     1
 10
435.28515625
 20
251.5166015625
 11
423.1083984375
 21
251.5166015625
 72
     1
 10
423.1083984375
 20
251.5166015625
 11
439.193359375
 21
274.7314453125
 72
     1
 10
439.193359375
 20
274.7314453125
 11
451.4228515625
 21
274.7314453125
 97
        0
 92
        1
 93
        3
 72
     1
 10
426.1748046875
 20
260.59716796875
 11
426.1748046875
 21
274.7314453125
 72
     1
 10
426.1748046875
 20
274.7314453125
 11
435.9248046875
 21
274.7314453125
 72
     1
 10
435.9248046875
 20
274.7314453125
 11
426.1748046875
 21
260.59716796875
 97
        0
 92
        1
 93
        4
 72
     1
 10
422.4931640625
 20
251.5166015625
 11
411.9951171875
 21
251.5166015625
 72
     1
 10
411.9951171875
 20
251.5166015625
 11
411.9951171875
 21
274.7314453125
 72
     1
 10
411.9951171875
 20
274.7314453125
 11
422.4931640625
 21
274.7314453125
 72
     1
 10
422.4931640625
 20
274.7314453125
 11
422.4931640625
 21
251.5166015625
 97
        0
 92
        1
 93
        1
 72
     4
 94
        3
 73
     0
 74
     1
 95
       29
 96
       25
 40
0.0
 40
0.0
 40
0.0
 40
0.0
 40
1.0
 40
1.0
 40
1.0
 40
2.0
 40
2.0
 40
2.0
 40
3.0
 40
3.0
 40
3.0
 40
4.0
 40
4.0
 40
4.0
 40
5.0
 40
5.0
 40
5.0
 40
6.0
 40
6.0
 40
6.0
 40
7.0
 40
7.0
 40
7.0
 40
8.0
 40
8.0
 40
8.0
 40
8.0
 10
422.958984375
 20
280.42138671875
 10
422.958984375
 20
279.2841796875
 10
422.3974609375
 20
278.2978515625
 10
421.28125
 20
277.46240234375
 10
420.166015625
 20
276.62841796875
 10
418.8134765625
 20
276.2060546875
 10
417.2138671875
 20
276.2060546875
 10
415.640625
 20
276.2060546875
 10
414.2958984375
 20
276.62060546875
 10
413.1904296875
 20
277.45556640625
 10
412.0830078125
 20
278.28369140625
 10
411.5302734375
 20
279.26953125
 10
411.5302734375
 20
280.42138671875
 10
411.5302734375
 20
281.53369140625
 10
412.0830078125
 20
282.49658203125
 10
413.1904296875
 20
283.3115234375
 10
414.2958984375
 20
284.1162109375
 10
415.640625
 20
284.5224609375
 10
417.2138671875
 20
284.5224609375
 10
418.794921875
 20
284.5224609375
 10
420.1484375
 20
284.1162109375
 10
421.271484375
 20
283.294921875
 10
422.3974609375
 20
282.484375
 10
422.958984375
 20
281.51904296875
 10
422.958984375
 20
280.42138671875
 97
        0
 92
        1
 93
        9
 72
     1
 10
406.8740234375
 20
274.7314453125
 11
410.529296875
 21
274.7314453125
 72
     1
 10
410.529296875
 20
274.7314453125
 11
410.529296875
 21
271.55517578125
 72
     1
 10
410.529296875
 20
271.55517578125
 11
406.8740234375
 21
271.55517578125
 72
     1
 10
406.8740234375
 20
271.55517578125
 11
406.8740234375
 21
251.5166015625
 72
     1
 10
406.8740234375
 20
251.5166015625
 11
396.40234375
 21
251.5166015625
 72
     1
 10
396.40234375
 20
251.5166015625
 11
396.40234375
 21
271.55517578125
 72
     1
 10
396.40234375
 20
271.55517578125
 11
392.6962890625
 21
271.55517578125
 72
     1
 10
392.6962890625
 20
271.55517578125
 11
406.8740234375
 21
284.1240234375
 72
     1
 10
406.8740234375
 20
284.1240234375
 11
406.8740234375
 21
274.7314453125
 97
        0
 92
        1
 93
        1
 72
     4
 94
        3
 73
     0
 74
     1
 95
       29
 96
       25
 40
0.0
 40
0.0
 40
0.0
 40
0.0
 40
1.0
 40
1.0
 40
1.0
 40
2.0
 40
2.0
 40
2.0
 40
3.0
 40
3.0
 40
3.0
 40
4.0
 40
4.0
 40
4.0
 40
5.0
 40
5.0
 40
5.0
 40
6.0
 40
6.0
 40
6.0
 40
7.0
 40
7.0
 40
7.0
 40
8.0
 40
8.0
 40
8.0
 40
8.0
 10
392.9765625
 20
270.65380859375
 10
392.9765625
 20
269.41845703125
 10
392.458984375
 20
268.36474609375
 10
391.421875
 20
267.48583984375
 10
390.3857421875
 20
266.60400390625
 10
389.1484375
 20
266.1611328125
 10
387.70703125
 20
266.1611328125
 10
386.2841796875
 20
266.1611328125
 10
385.0537109375
 20
266.60400390625
 10
384.0263671875
 20
267.49169921875
 10
382.9970703125
 20
268.37890625
 10
382.478515625
 20
269.43359375
 10
382.478515625
 20
270.65380859375
 10
382.478515625
 20
271.86474609375
 10
382.9970703125
 20
272.91015625
 10
384.0341796875
 20
273.7978515625
 10
385.0703125
 20
274.68603515625
 10
386.291015625
 20
275.1298828125
 10
387.70703125
 20
275.1298828125
 10
389.12890625
 20
275.1298828125
 10
390.3583984375
 20
274.68603515625
 10
391.4033203125
 20
273.8056640625
 10
392.4501953125
 20
272.92578125
 10
392.9765625
 20
271.8798828125
 10
392.9765625
 20
270.65380859375
 97
        0
 92
        1
 93
        4
 72
     1
 10
381.267578125
 20
274.7314453125
 11
381.267578125
 21
251.5166015625
 72
     1
 10
381.267578125
 20
251.5166015625
 11
370.76953125
 21
251.5166015625
 72
     1
 10
370.76953125
 20
251.5166015625
 11
370.76953125
 21
274.7314453125
 72
     1
 10
370.76953125
 20
274.7314453125
 11
381.267578125
 21
274.7314453125
 97
        0
 92
        1
 93
        1
 72
     4
 94
        3
 73
     0
 74
     1
 95
       32
 96
       28
 40
0.0
 40
0.0
 40
0.0
 40
0.0
 40
1.0
 40
1.0
 40
1.0
 40
2.0
 40
2.0
 40
2.0
 40
3.0
 40
3.0
 40
3.0
 40
4.0
 40
4.0
 40
4.0
 40
5.0
 40
5.0
 40
5.0
 40
6.0
 40
6.0
 40
6.0
 40
7.0
 40
7.0
 40
7.0
 40
8.0
 40
8.0
 40
8.0
 40
9.0
 40
9.0
 40
9.0
 40
9.0
 10
353.6728515625
 20
251.5166015625
 10
353.515625
 20
251.5009765625
 10
353.33984375
 20
251.4921875
 10
353.1455078125
 20
251.4853515625
 10
352.953125
 20
251.47802734375
 10
352.671875
 20
251.4697265625
 10
352.3115234375
 20
251.4697265625
 10
349.2373046875
 20
251.4697265625
 10
346.8916015625
 20
252.02734375
 10
345.275390625
 20
253.1474609375
 10
343.6513671875
 20
254.263671875
 10
342.841796875
 20
255.87353515625
 10
342.841796875
 20
257.98046875
 10
342.841796875
 20
260.10986328125
 10
343.640625
 20
261.7353515625
 10
345.2490234375
 20
262.84912109375
 10
346.8466796875
 20
263.96875
 10
349.1845703125
 20
264.52783203125
 10
352.2587890625
 20
264.52783203125
 10
352.6533203125
 20
264.52783203125
 10
352.9443359375
 20
264.52783203125
 10
353.1376953125
 20
264.51904296875
 10
353.322265625
 20
264.51025390625
 10
353.4970703125
 20
264.49755859375
 10
353.6728515625
 20
264.4814453125
 10
353.6728515625
 20
264.4814453125
 10
353.6728515625
 20
251.5166015625
 10
353.6728515625
 20
251.5166015625
 97
        0
 92
        1
 93
        1
 72
     4
 94
        3
 73
     0
 74
     1
 95
       29
 96
       25
 40
0.0
 40
0.0
 40
0.0
 40
0.0
 40
1.0
 40
1.0
 40
1.0
 40
2.0
 40
2.0
 40
2.0
 40
3.0
 40
3.0
 40
3.0
 40
4.0
 40
4.0
 40
4.0
 40
5.0
 40
5.0
 40
5.0
 40
6.0
 40
6.0
 40
6.0
 40
7.0
 40
7.0
 40
7.0
 40
8.0
 40
8.0
 40
8.0
 40
8.0
 10
344.1513671875
 20
270.1259765625
 10
344.1513671875
 20
271.37548828125
 10
344.677734375
 20
272.4580078125
 10
345.732421875
 20
273.36962890625
 10
346.794921875
 20
274.27978515625
 10
348.0595703125
 20
274.7314453125
 10
349.5263671875
 20
274.7314453125
 10
350.9853515625
 20
274.7314453125
 10
352.251953125
 20
274.27978515625
 10
353.3134765625
 20
273.36962890625
 10
354.376953125
 20
272.4580078125
 10
354.904296875
 20
271.37548828125
 10
354.904296875
 20
270.1259765625
 10
354.904296875
 20
268.845703125
 10
354.376953125
 20
267.75439453125
 10
353.322265625
 20
266.84521484375
 10
352.2685546875
 20
265.93359375
 10
351.001953125
 20
265.47607421875
 10
349.5263671875
 20
265.47607421875
 10
348.0439453125
 20
265.47607421875
 10
346.76953125
 20
265.93359375
 10
345.72265625
 20
266.84521484375
 10
344.677734375
 20
267.75439453125
 10
344.1513671875
 20
268.845703125
 10
344.1513671875
 20
270.1259765625
 97
        0
 92
        1
 93
        1
 72
     4
 94
        3
 73
     0
 74
     1
 95
       32
 96
       28
 40
0.0
 40
0.0
 40
0.0
 40
0.0
 40
1.0
 40
1.0
 40
1.0
 40
2.0
 40
2.0
 40
2.0
 40
3.0
 40
3.0
 40
3.0
 40
4.0
 40
4.0
 40
4.0
 40
5.0
 40
5.0
 40
5.0
 40
6.0
 40
6.0
 40
6.0
 40
7.0
 40
7.0
 40
7.0
 40
8.0
 40
8.0
 40
8.0
 40
9.0
 40
9.0
 40
9.0
 40
9.0
 10
356.8349609375
 20
251.5166015625
 10
356.8349609375
 20
251.5166015625
 10
356.8349609375
 20
268.1396484375
 10
356.8349609375
 20
268.1396484375
 10
356.8349609375
 20
270.00537109375
 10
356.5986328125
 20
271.3896484375
 10
356.1328125
 20
272.2861328125
 10
355.658203125
 20
273.18212890625
 10
354.82421875
 20
273.986328125
 10
353.62109375
 20
274.68603515625
 10
354.7197265625
 20
274.8515625
 10
355.6328125
 20
274.96484375
 10
356.3525390625
 20
275.0322265625
 10
357.0732421875
 20
275.1015625
 10
357.6982421875
 20
275.1298828125
 10
358.22265625
 20
275.1298828125
 10
361.2099609375
 20
275.1298828125
 10
363.4345703125
 20
274.42333984375
 10
364.8916015625
 20
273.0
 10
366.3505859375
 20
271.5859375
 10
367.0791015625
 20
269.41845703125
 10
367.0791015625
 20
266.51318359375
 10
367.0791015625
 20
266.51318359375
 10
367.0791015625
 20
251.5166015625
 10
367.0791015625
 20
251.5166015625
 10
367.0791015625
 20
251.5166015625
 10
356.8349609375
 20
251.5166015625
 10
356.8349609375
 20
251.5166015625
 97
        0
 92
        1
 93
        4
 72
     1
 10
326.703125
 20
242.296875
 11
316.2060546875
 21
242.296875
 72
     1
 10
316.2060546875
 20
242.296875
 11
316.2060546875
 21
274.7314453125
 72
     1
 10
316.2060546875
 20
274.7314453125
 11
326.703125
 21
274.7314453125
 72
     1
 10
326.703125
 20
274.7314453125
 11
326.703125
 21
242.296875
 97
        0
 92
        1
 93
        1
 72
     4
 94
        3
 73
     0
 74
     1
 95
       20
 96
       16
 40
0.0
 40
0.0
 40
0.0
 40
0.0
 40
1.0
 40
1.0
 40
1.0
 40
2.0
 40
2.0
 40
2.0
 40
3.0
 40
3.0
 40
3.0
 40
4.0
 40
4.0
 40
4.0
 40
5.0
 40
5.0
 40
5.0
 40
5.0
 10
329.6103515625
 20
251.5166015625
 10
329.6103515625
 20
251.5166015625
 10
329.6103515625
 20
274.7314453125
 10
329.6103515625
 20
274.7314453125
 10
333.3896484375
 20
274.40771484375
 10
336.3056640625
 20
273.23388671875
 10
338.3603515625
 20
271.20166015625
 10
340.42578125
 20
269.177734375
 10
341.453125
 20
266.4609375
 10
341.453125
 20
263.0673828125
 10
341.453125
 20
259.71875
 10
340.4091796875
 20
257.0234375
 10
338.3271484375
 20
255.0009765625
 10
336.244140625
 20
252.96875
 10
333.3359375
 20
251.80908203125
 10
329.6103515625
 20
251.5166015625
 97
        0
 92
        1
 93
        4
 72
     1
 10
296.77490234375
 20
251.5166015625
 11
286.27587890625
 21
251.5166015625
 72
     1
 10
286.27587890625
 20
251.5166015625
 11
286.27587890625
 21
274.7314453125
 72
     1
 10
286.27587890625
 20
274.7314453125
 11
296.77490234375
 21
274.7314453125
 72
     1
 10
296.77490234375
 20
274.7314453125
 11
296.77490234375
 21
251.5166015625
 97
        0
 92
        1
 93
        1
 72
     4
 94
        3
 73
     0
 74
     1
 95
       29
 96
       25
 40
0.0
 40
0.0
 40
0.0
 40
0.0
 40
1.0
 40
1.0
 40
1.0
 40
2.0
 40
2.0
 40
2.0
 40
3.0
 40
3.0
 40
3.0
 40
4.0
 40
4.0
 40
4.0
 40
5.0
 40
5.0
 40
5.0
 40
6.0
 40
6.0
 40
6.0
 40
7.0
 40
7.0
 40
7.0
 40
8.0
 40
8.0
 40
8.0
 40
8.0
 10
297.23779296875
 20
280.42138671875
 10
297.23779296875
 20
279.2841796875
 10
296.67822265625
 20
278.2978515625
 10
295.56103515625
 20
277.46240234375
 10
294.44677734375
 20
276.62841796875
 10
293.09228515625
 20
276.2060546875
 10
291.494140625
 20
276.2060546875
 10
289.92138671875
 20
276.2060546875
 10
288.5771484375
 20
276.62060546875
 10
287.4697265625
 20
277.45556640625
 10
286.3642578125
 20
278.28369140625
 10
285.81005859375
 20
279.26953125
 10
285.81005859375
 20
280.42138671875
 10
285.81005859375
 20
281.53369140625
 10
286.3642578125
 20
282.49658203125
 10
287.4697265625
 20
283.3115234375
 10
288.5771484375
 20
284.1162109375
 10
289.92138671875
 20
284.5224609375
 10
291.494140625
 20
284.5224609375
 10
293.07421875
 20
284.5224609375
 10
294.427734375
 20
284.1162109375
 10
295.5537109375
 20
283.294921875
 10
296.67822265625
 20
282.484375
 10
297.23779296875
 20
281.51904296875
 10
297.23779296875
 20
280.42138671875
 97
        0
 92
        1
 93
        3
 72
     1
 10
279.44970703125
 20
260.8173828125
 11
273.58056640625
 21
274.7314453125
 72
     1
 10
273.58056640625
 20
274.7314453125
 11
285.75830078125
 21
274.7314453125
 72
     1
 10
285.75830078125
 20
274.7314453125
 11
279.44970703125
 21
260.8173828125
 97
        0
 92
        1
 93
        5
 72
     1
 10
275.53955078125
 20
251.5166015625
 11
269.0576171875
 21
251.5166015625
 72
     1
 10
269.0576171875
 20
251.5166015625
 11
259.1474609375
 21
274.7314453125
 72
     1
 10
259.1474609375
 20
274.7314453125
 11
270.6484375
 21
274.7314453125
 72
     1
 10
270.6484375
 20
274.7314453125
 11
277.95703125
 21
257.1591796875
 72
     1
 10
277.95703125
 20
257.1591796875
 11
275.53955078125
 21
251.5166015625
 97
        0
 92
        1
 93
        1
 72
     4
 94
        3
 73
     0
 74
     1
 95
       29
 96
       25
 40
0.0
 40
0.0
 40
0.0
 40
0.0
 40
1.0
 40
1.0
 40
1.0
 40
2.0
 40
2.0
 40
2.0
 40
3.0
 40
3.0
 40
3.0
 40
4.0
 40
4.0
 40
4.0
 40
5.0
 40
5.0
 40
5.0
 40
6.0
 40
6.0
 40
6.0
 40
7.0
 40
7.0
 40
7.0
 40
8.0
 40
8.0
 40
8.0
 40
8.0
 10
259.68359375
 20
270.65380859375
 10
259.68359375
 20
269.41845703125
 10
259.166015625
 20
268.36474609375
 10
258.12841796875
 20
267.48583984375
 10
257.09326171875
 20
266.60400390625
 10
255.85498046875
 20
266.1611328125
 10
254.41357421875
 20
266.1611328125
 10
252.990234375
 20
266.1611328125
 10
251.7607421875
 20
266.60400390625
 10
250.73193359375
 20
267.49169921875
 10
249.705078125
 20
268.37890625
 10
249.1865234375
 20
269.43359375
 10
249.1865234375
 20
270.65380859375
 10
249.1865234375
 20
271.86474609375
 10
249.705078125
 20
272.91015625
 10
250.74169921875
 20
273.7978515625
 10
251.77734375
 20
274.68603515625
 10
252.998046875
 20
275.1298828125
 10
254.41357421875
 20
275.1298828125
 10
255.8359375
 20
275.1298828125
 10
257.06640625
 20
274.68603515625
 10
258.11181640625
 20
273.8056640625
 10
259.1572265625
 20
272.92578125
 10
259.68359375
 20
271.8798828125
 10
259.68359375
 20
270.65380859375
 97
        0
 92
        1
 93
        4
 72
     1
 10
247.97412109375
 20
274.7314453125
 11
247.97412109375
 21
251.5166015625
 72
     1
 10
247.97412109375
 20
251.5166015625
 11
237.47607421875
 21
251.5166015625
 72
     1
 10
237.47607421875
 20
251.5166015625
 11
237.47607421875
 21
274.7314453125
 72
     1
 10
237.47607421875
 20
274.7314453125
 11
247.97412109375
 21
274.7314453125
 97
        0
 92
        1
 93
        4
 72
     1
 10
220.51220703125
 20
242.296875
 11
210.0146484375
 21
242.296875
 72
     1
 10
210.0146484375
 20
242.296875
 11
210.0146484375
 21
274.7314453125
 72
     1
 10
210.0146484375
 20
274.7314453125
 11
220.51220703125
 21
274.7314453125
 72
     1
 10
220.51220703125
 20
274.7314453125
 11
220.51220703125
 21
242.296875
 97
        0
 92
        1
 93
        1
 72
     4
 94
        3
 73
     0
 74
     1
 95
       20
 96
       16
 40
0.0
 40
0.0
 40
0.0
 40
0.0
 40
1.0
 40
1.0
 40
1.0
 40
2.0
 40
2.0
 40
2.0
 40
3.0
 40
3.0
 40
3.0
 40
4.0
 40
4.0
 40
4.0
 40
5.0
 40
5.0
 40
5.0
 40
5.0
 10
223.42041015625
 20
251.5166015625
 10
223.42041015625
 20
251.5166015625
 10
223.42041015625
 20
274.7314453125
 10
223.42041015625
 20
274.7314453125
 10
227.197265625
 20
274.40771484375
 10
230.11279296875
 20
273.23388671875
 10
232.1708984375
 20
271.20166015625
 10
234.2353515625
 20
269.177734375
 10
235.26123046875
 20
266.4609375
 10
235.26123046875
 20
263.0673828125
 10
235.26123046875
 20
259.71875
 10
234.216796875
 20
257.0234375
 10
232.13427734375
 20
255.0009765625
 10
230.052734375
 20
252.96875
 10
227.1435546875
 20
251.80908203125
 10
223.42041015625
 20
251.5166015625
 97
        0
 75
     0
 76
     1
 98
        0
  0
SPLINE
  5
C2
330
3C
100
AcDbEntity
  8
Layer 1
370
     0
100
AcDbSpline
210
0.0
220
0.0
230
1.0
 70
    11
 71
     3
 72
    17
 73
    13
 74
     0
 42
0.0000000001
 43
0.0000000001
 40
0.0
 40
0.0
 40
0.0
 40
0.0
 40
1.0
 40
1.0
 40
1.0
 40
2.0
 40
2.0
 40
2.0
 40
3.0
 40
3.0
 40
3.0
 40
4.0
 40
4.0
 40
4.0
 40
4.0
 10
196.46826171875
 20
269.10693359375
 30
0.0
 10
199.60693359375
 20
269.10693359375
 30
0.0
 10
202.1650390625
 20
266.546875
 30
0.0
 10
202.1650390625
 20
263.4111328125
 30
0.0
 10
202.1650390625
 20
260.27197265625
 30
0.0
 10
199.60693359375
 20
257.7119140625
 30
0.0
 10
196.46826171875
 20
257.7119140625
 30
0.0
 10
193.330078125
 20
257.7119140625
 30
0.0
 10
190.771484375
 20
260.27197265625
 30
0.0
 10
190.771484375
 20
263.4111328125
 30
0.0
 10
190.771484375
 20
266.546875
 30
0.0
 10
193.330078125
 20
269.10693359375
 30
0.0
 10
196.46826171875
 20
269.10693359375
 30
0.0
  0
HATCH
  5
C3
330
3C
100
AcDbEntity
  8
Layer 1
 62
   240
420
 15539236
100
AcDbHatch
 10
0.0
 20
0.0
 30
0.0
210
0.0
220
0.0
230
1.0
  2
SOLID
 70
     1
 71
     0
 91
        1
 92
        1
 93
        2
 72
     4
 94
        3
 73
     0
 74
     0
 95
       17
 96
       13
 40
0.0
 40
0.0
 40
0.0
 40
0.0
 40
1.0
 40
1.0
 40
1.0
 40
2.0
 40
2.0
 40
2.0
 40
3.0
 40
3.0
 40
3.0
 40
4.0
 40
4.0
 40
4.0
 40
4.0
 10
196.46826171875
 20
269.10693359375
 10
199.60693359375
 20
269.10693359375
 10
202.1650390625
 20
266.546875
 10
202.1650390625
 20
263.4111328125
 10
202.1650390625
 20
260.27197265625
 10
199.60693359375
 20
257.7119140625
 10
196.46826171875
 20
257.7119140625
 10
193.330078125
 20
257.7119140625
 10
190.771484375
 20
260.27197265625
 10
190.771484375
 20
263.4111328125
 10
190.771484375
 20
266.546875
 10
193.330078125
 20
269.10693359375
 10
196.46826171875
 20
269.10693359375
 72
     1
 10
196.46826171875
 20
269.10693359375
 11
196.46826171875
 21
269.10693359375
 97
        0
 75
     0
 76
     1
 98
        0
  0
SPLINE
  5
C4
330
3C
100
AcDbEntity
  8
Layer 1
370
     0
100
AcDbSpline
210
0.0
220
0.0
230
1.0
 70
    11
 71
     3
 72
    17
 73
    13
 74
     0
 42
0.0000000001
 43
0.0000000001
 40
0.0
 40
0.0
 40
0.0
 40
0.0
 40
1.0
 40
1.0
 40
1.0
 40
2.0
 40
2.0
 40
2.0
 40
3.0
 40
3.0
 40
3.0
 40
4.0
 40
4.0
 40
4.0
 40
4.0
 10
516.2431640625
 20
269.10693359375
 30
0.0
 10
519.380859375
 20
269.10693359375
 30
0.0
 10
521.939453125
 20
266.546875
 30
0.0
 10
521.939453125
 20
263.4111328125
 30
0.0
 10
521.939453125
 20
260.27197265625
 30
0.0
 10
519.380859375
 20
257.7119140625
 30
0.0
 10
516.2431640625
 20
257.7119140625
 30
0.0
 10
513.10546875
 20
257.7119140625
 30
0.0
 10
510.544921875
 20
260.27197265625
 30
0.0
 10
510.544921875
 20
263.4111328125
 30
0.0
 10
510.544921875
 20
266.546875
 30
0.0
 10
513.10546875
 20
269.10693359375
 30
0.0
 10
516.2431640625
 20
269.10693359375
 30
0.0
  0
HATCH
  5
C5
330
3C
100
AcDbEntity
  8
Layer 1
 62
   240
420
 15539236
100
AcDbHatch
 10
0.0
 20
0.0
 30
0.0
210
0.0
220
0.0
230
1.0
  2
SOLID
 70
     1
 71
     0
 91
        1
 92
        1
 93
        2
 72
     4
 94
        3
 73
     0
 74
     0
 95
       17
 96
       13
 40
0.0
 40
0.0
 40
0.0
 40
0.0
 40
1.0
 40
1.0
 40
1.0
 40
2.0
 40
2.0
 40
2.0
 40
3.0
 40
3.0
 40
3.0
 40
4.0
 40
4.0
 40
4.0
 40
4.0
 10
516.2431640625
 20
269.10693359375
 10
519.380859375
 20
269.10693359375
 10
521.939453125
 20
266.546875
 10
521.939453125
 20
263.4111328125
 10
521.939453125
 20
260.27197265625
 10
519.380859375
 20
257.7119140625
 10
516.2431640625
 20
257.7119140625
 10
513.10546875
 20
257.7119140625
 10
510.544921875
 20
260.27197265625
 10
510.544921875
 20
263.4111328125
 10
510.544921875
 20
266.546875
 10
513.10546875
 20
269.10693359375
 10
516.2431640625
 20
269.10693359375
 72
     1
 10
516.2431640625
 20
269.10693359375
 11
516.2431640625
 21
269.10693359375
 97
        0
 75
     0
 76
     1
 98
        0
  0
POLYLINE
  5
C6
330
3C
100
AcDbEntity
  8
Layer 1
370
     0
100
AcDb2dPolyline
 66
     1
 10
0.0
 20
0.0
 30
0.0
  0
VERTEX
  5
C7
330
C6
100
AcDbEntity
  8
Layer 1
370
     0
100
AcDbVertex
100
AcDb2dVertex
 10
-9.0
 20
-9.0
 30
0.0
  0
VERTEX
  5
C8
330
C6
100
AcDbEntity
  8
Layer 1
370
     0
100
AcDbVertex
100
AcDb2dVertex
 10
605.0
 20
-9.0
 30
0.0
  0
VERTEX
  5
C9
330
C6
100
AcDbEntity
  8
Layer 1
370
     0
100
AcDbVertex
100
AcDb2dVertex
 10
605.0
 20
429.0
 30
0.0
  0
VERTEX
  5
CA
330
C6
100
AcDbEntity
  8
Layer 1
370
     0
100
AcDbVertex
100
AcDb2dVertex
 10
-9.0
 20
429.0
 30
0.0
  0
VERTEX
  5
CB
330
C6
100
AcDbEntity
  8
Layer 1
370
     0
100
AcDbVertex
100
AcDb2dVertex
 10
-9.0
 20
-9.0
 30
0.0
  0
SEQEND
  5
CC
330
C6
100
AcDbEntity
  8
Layer 1
370
     0
  0
ENDBLK
  5
3F
330
3C
100
AcDbEntity
  8
0
100
AcDbBlockEnd
  0
ENDSEC
  0
SECTION
  2
ENTITIES
  0
INSERT
  5
3D
330
1F
100
AcDbEntity
  8
Layer 1
100
AcDbBlockReference
  2
block 2
 10
0.0
 20
0.0
 30
0.0
  0
ENDSEC
  0
SECTION
  2
OBJECTS
  0
DICTIONARY
  5
C
330
0
100
AcDbDictionary
281
     1
  3
ACAD_GROUP
350
D
  3
ACAD_LAYOUT
350
1A
  3
ACAD_MLINESTYLE
350
17
  3
ACAD_PLOTSETTINGS
350
19
  3
ACAD_PLOTSTYLENAME
350
E
  3
ACAD_TABLESTYLE
350
CD
  3
ACAD_VISUALSTYLE
350
2A
  0
DICTIONARY
  5
D
102
{ACAD_REACTORS
330
C
102
}
330
C
100
AcDbDictionary
281
     1
  0
DICTIONARY
  5
1A
102
{ACAD_REACTORS
330
C
102
}
330
C
100
AcDbDictionary
281
     1
  3
Layout1
350
1E
  3
Layout2
350
26
  3
Model
350
22
  0
DICTIONARY
  5
17
102
{ACAD_REACTORS
330
C
102
}
330
C
100
AcDbDictionary
281
     1
  3
Standard
350
18
  0
DICTIONARY
  5
19
102
{ACAD_REACTORS
330
C
102
}
330
C
100
AcDbDictionary
281
     1
  0
ACDBDICTIONARYWDFLT
  5
E
102
{ACAD_REACTORS
330
C
102
}
330
C
100
AcDbDictionary
281
     1
  3
Normal
350
F
100
AcDbDictionaryWithDefault
340
F
  0
DICTIONARY
  5
CD
102
{ACAD_REACTORS
330
C
102
}
330
C
100
AcDbDictionary
281
     1
  0
DICTIONARY
  5
2A
102
{ACAD_REACTORS
330
C
102
}
330
C
100
AcDbDictionary
281
     1
  3
2dWireframe
350
2F
  3
3D Hidden
350
31
  3
3dWireframe
350
30
  3
Basic
350
32
  3
Brighten
350
36
  3
ColorChange
350
3A
  3
Conceptual
350
34
  3
Dim
350
35
  3
Facepattern
350
39
  3
Flat
350
2B
  3
FlatWithEdges
350
2C
  3
Gouraud
350
2D
  3
GouraudWithEdges
350
2E
  3
Linepattern
350
38
  3
Realistic
350
33
  3
Thicken
350
37
  0
LAYOUT
  5
1E
102
{ACAD_REACTORS
330
1A
102
}
330
1A
100
AcDbPlotSettings
  1

  2
none_device
  4

  6

 40
0.0
 41
0.0
 42
0.0
 43
0.0
 44
0.0
 45
0.0
 46
0.0
 47
0.0
 48
0.0
 49
0.0
140
0.0
141
0.0
142
1.0
143
1.0
 70
   688
 72
     0
 73
     0
 74
     5
  7

 75
    16
 76
     0
 77
     2
 78
   300
147
1.0
148
0.0
149
0.0
100
AcDbLayout
  1
Layout1
 70
     1
 71
     1
 10
0.0
 20
0.0
 11
12.0
 21
9.0
 12
0.0
 22
0.0
 32
0.0
 14
1.000000000000000E+20
 24
1.000000000000000E+20
 34
1.000000000000000E+20
 15
-1.000000000000000E+20
 25
-1.000000000000000E+20
 35
-1.000000000000000E+20
146
0.0
 13
0.0
 23
0.0
 33
0.0
 16
1.0
 26
0.0
 36
0.0
 17
0.0
 27
1.0
 37
0.0
 76
     0
330
1B
  0
LAYOUT
  5
26
102
{ACAD_REACTORS
330
1A
102
}
330
1A
100
AcDbPlotSettings
  1

  2
none_device
  4

  6

 40
0.0
 41
0.0
 42
0.0
 43
0.0
 44
0.0
 45
0.0
 46
0.0
 47
0.0
 48
0.0
 49
0.0
140
0.0
141
0.0
142
1.0
143
1.0
 70
   688
 72
     0
 73
     0
 74
     5
  7

 75
    16
 76
     0
 77
     2
 78
   300
147
1.0
148
0.0
149
0.0
100
AcDbLayout
  1
Layout2
 70
     1
 71
     2
 10
0.0
 20
0.0
 11
0.0
 21
0.0
 12
0.0
 22
0.0
 32
0.0
 14
0.0
 24
0.0
 34
0.0
 15
0.0
 25
0.0
 35
0.0
146
0.0
 13
0.0
 23
0.0
 33
0.0
 16
1.0
 26
0.0
 36
0.0
 17
0.0
 27
1.0
 37
0.0
 76
     0
330
23
  0
LAYOUT
  5
22
102
{ACAD_REACTORS
330
1A
102
}
330
1A
100
AcDbPlotSettings
  1

  2
none_device
  4

  6

 40
0.0
 41
0.0
 42
0.0
 43
0.0
 44
0.0
 45
0.0
 46
0.0
 47
0.0
 48
0.0
 49
0.0
140
0.0
141
0.0
142
1.0
143
1.0
 70
  1712
 72
     0
 73
     0
 74
     0
  7

 75
     0
 76
     0
 77
     2
 78
   300
147
1.0
148
0.0
149
0.0
100
AcDbLayout
  1
Model
 70
     1
 71
     0
 10
0.0
 20
0.0
 11
12.0
 21
9.0
 12
0.0
 22
0.0
 32
0.0
 14
1.000000000000000E+20
 24
1.000000000000000E+20
 34
1.000000000000000E+20
 15
-1.000000000000000E+20
 25
-1.000000000000000E+20
 35
-1.000000000000000E+20
146
0.0
 13
0.0
 23
0.0
 33
0.0
 16
1.0
 26
0.0
 36
0.0
 17
0.0
 27
1.0
 37
0.0
 76
     0
330
1F
331
29
  0
MLINESTYLE
  5
18
102
{ACAD_REACTORS
330
17
102
}
330
17
100
AcDbMlineStyle
  2
Standard
 70
     0
  3

 62
   256
 51
90.0
 52
90.0
 71
     2
 49
0.5
 62
   256
  6
BYLAYER
 49
-0.5
 62
   256
  6
BYLAYER
  0
ACDBPLACEHOLDER
  5
F
102
{ACAD_REACTORS
330
E
102
}
330
E
  0
VISUALSTYLE
  5
2F
102
{ACAD_REACTORS
330
2A
102
}
330
2A
100
AcDbVisualStyle
  2
2dWireframe
 70
     4
 71
     0
 72
     2
 73
     0
 90
        0
 40
-0.6
 41
-30.0
 62
     5
 63
     7
421
 16777215
 74
     1
 91
        4
 64
     7
 65
   257
 75
     1
175
     1
 42
1.0
 92
        0
 66
   257
 43
1.0
 76
     1
 77
     6
 78
     2
 67
     7
 79
     5
170
     0
171
     0
290
     0
174
     0
 93
        1
 44
0.0
173
     0
291
     0
 45
0.0
1001
ACAD
1000
AcDbSavedByObjectVersion
1070
     0
  0
VISUALSTYLE
  5
31
102
{ACAD_REACTORS
330
2A
102
}
330
2A
100
AcDbVisualStyle
  2
3D Hidden
 70
     6
 71
     1
 72
     2
 73
     2
 90
        0
 40
-0.6
 41
-30.0
 62
     5
 63
     7
421
 16777215
 74
     2
 91
        2
 64
     7
 65
   257
 75
     2
175
     1
 42
40.0
 92
        0
 66
   257
 43
1.0
 76
     1
 77
     6
 78
     2
 67
     7
 79
     3
170
     0
171
     0
290
     0
174
     0
 93
        1
 44
0.0
173
     0
291
     0
 45
0.0
1001
ACAD
1000
AcDbSavedByObjectVersion
1070
     0
  0
VISUALSTYLE
  5
30
102
{ACAD_REACTORS
330
2A
102
}
330
2A
100
AcDbVisualStyle
  2
3dWireframe
 70
     5
 71
     0
 72
     2
 73
     0
 90
        0
 40
-0.6
 41
-30.0
 62
     5
 63
     7
421
 16777215
 74
     1
 91
        4
 64
     7
 65
   257
 75
     1
175
     1
 42
1.0
 92
        0
 66
   257
 43
1.0
 76
     1
 77
     6
 78
     2
 67
     7
 79
     5
170
     0
171
     0
290
     0
174
     0
 93
        1
 44
0.0
173
     0
291
     0
 45
0.0
1001
ACAD
1000
AcDbSavedByObjectVersion
1070
     0
  0
VISUALSTYLE
  5
32
102
{ACAD_REACTORS
330
2A
102
}
330
2A
100
AcDbVisualStyle
  2
Basic
 70
     7
 71
     1
 72
     0
 73
     1
 90
        0
 40
-0.6
 41
-30.0
 62
     5
 63
     7
421
 16777215
 74
     0
 91
        4
 64
     7
 65
   257
 75
     1
175
     1
 42
1.0
 92
        8
 66
     7
 43
1.0
 76
     1
 77
     6
 78
     2
 67
     7
 79
     5
170
     0
171
     0
290
     0
174
     0
 93
        1
 44
0.0
173
     0
291
     1
 45
0.0
1001
ACAD
1000
AcDbSavedByObjectVersion
1070
     0
  0
VISUALSTYLE
  5
36
102
{ACAD_REACTORS
330
2A
102
}
330
2A
100
AcDbVisualStyle
  2
Brighten
 70
    12
 71
     2
 72
     2
 73
     0
 90
        0
 40
-0.6
 41
-30.0
 62
     5
 63
     7
421
 16777215
 74
     1
 91
        4
 64
     7
 65
   257
 75
     1
175
     1
 42
1.0
 92
        8
 66
     7
 43
1.0
 76
     1
 77
     6
 78
     2
 67
     7
 79
     5
170
     0
171
     0
290
     0
174
     0
 93
        1
 44
50.0
173
     0
291
     1
 45
0.0
1001
ACAD
1000
AcDbSavedByObjectVersion
1070
     0
  0
VISUALSTYLE
  5
3A
102
{ACAD_REACTORS
330
2A
102
}
330
2A
100
AcDbVisualStyle
  2
ColorChange
 70
    16
 71
     2
 72
     2
 73
     3
 90
        0
 40
-0.6
 41
-30.0
 62
     5
 63
     8
421
  8421504
 74
     1
 91
        4
 64
     7
 65
   257
 75
     1
175
     1
 42
1.0
 92
        8
 66
     8
424
  8421504
 43
1.0
 76
     1
 77
     6
 78
     2
 67
     7
 79
     5
170
     0
171
     0
290
     0
174
     0
 93
        1
 44
0.0
173
     0
291
     1
 45
0.0
1001
ACAD
1000
AcDbSavedByObjectVersion
1070
     0
  0
VISUALSTYLE
  5
34
102
{ACAD_REACTORS
330
2A
102
}
330
2A
100
AcDbVisualStyle
  2
Conceptual
 70
     9
 71
     3
 72
     2
 73
     0
 90
        0
 40
-0.6
 41
-30.0
 62
     5
 63
     7
421
 16777215
 74
     2
 91
        2
 64
     7
 65
   257
 75
     1
175
     1
 42
40.0
 92
        8
 66
     7
 43
1.0
 76
     1
 77
     6
 78
     2
 67
     7
 79
     3
170
     0
171
     0
290
     0
174
     0
 93
        1
 44
0.0
173
     0
291
     0
 45
0.0
1001
ACAD
1000
AcDbSavedByObjectVersion
1070
     0
  0
VISUALSTYLE
  5
35
102
{ACAD_REACTORS
330
2A
102
}
330
2A
100
AcDbVisualStyle
  2
Dim
 70
    11
 71
     2
 72
     2
 73
     0
 90
        0
 40
-0.6
 41
-30.0
 62
     5
 63
     7
421
 16777215
 74
     1
 91
        4
 64
     7
 65
   257
 75
     1
175
     1
 42
1.0
 92
        8
 66
     7
 43
1.0
 76
     1
 77
     6
 78
     2
 67
     7
 79
     5
170
     0
171
     0
290
     0
174
     0
 93
        1
 44
-50.0
173
     0
291
     1
 45
0.0
1001
ACAD
1000
AcDbSavedByObjectVersion
1070
     0
  0
VISUALSTYLE
  5
39
102
{ACAD_REACTORS
330
2A
102
}
330
2A
100
AcDbVisualStyle
  2
Facepattern
 70
    15
 71
     2
 72
     2
 73
     0
 90
        0
 40
-0.6
 41
-30.0
 62
     5
 63
     7
421
 16777215
 74
     1
 91
        4
 64
     7
 65
   257
 75
     1
175
     1
 42
1.0
 92
        8
 66
     7
 43
1.0
 76
     1
 77
     6
 78
     2
 67
     7
 79
     5
170
     0
171
     0
290
     0
174
     0
 93
        1
 44
0.0
173
     0
291
     1
 45
0.0
1001
ACAD
1000
AcDbSavedByObjectVersion
1070
     0
  0
VISUALSTYLE
  5
2B
102
{ACAD_REACTORS
330
2A
102
}
330
2A
100
AcDbVisualStyle
  2
Flat
 70
     0
 71
     2
 72
     1
 73
     1
 90
        2
 40
-0.6
 41
30.0
 62
     5
 63
     7
421
 16777215
 74
     0
 91
        4
 64
     7
 65
   257
 75
     1
175
     1
 42
1.0
 92
        8
 66
     7
 43
1.0
 76
     1
 77
     6
 78
     2
 67
     7
 79
     5
170
     0
171
     0
290
     0
174
     0
 93
       13
 44
0.0
173
     0
291
     1
 45
0.0
1001
ACAD
1000
AcDbSavedByObjectVersion
1070
     0
  0
VISUALSTYLE
  5
2C
102
{ACAD_REACTORS
330
2A
102
}
330
2A
100
AcDbVisualStyle
  2
FlatWithEdges
 70
     1
 71
     2
 72
     1
 73
     1
 90
        2
 40
-0.6
 41
30.0
 62
     5
 63
     7
421
 16777215
 74
     1
 91
        4
 64
     7
 65
   257
 75
     1
175
     1
 42
1.0
 92
        0
 66
   257
 43
1.0
 76
     1
 77
     6
 78
     2
 67
     7
 79
     5
170
     0
171
     0
290
     0
174
     0
 93
       13
 44
0.0
173
     0
291
     1
 45
0.0
1001
ACAD
1000
AcDbSavedByObjectVersion
1070
     0
  0
VISUALSTYLE
  5
2D
102
{ACAD_REACTORS
330
2A
102
}
330
2A
100
AcDbVisualStyle
  2
Gouraud
 70
     2
 71
     2
 72
     2
 73
     1
 90
        2
 40
-0.6
 41
30.0
 62
     5
 63
     7
421
 16777215
 74
     0
 91
        4
 64
     7
 65
   257
 75
     1
175
     1
 42
1.0
 92
        0
 66
     7
 43
1.0
 76
     1
 77
     6
 78
     2
 67
     7
 79
     5
170
     0
171
     0
290
     0
174
     0
 93
       13
 44
0.0
173
     0
291
     1
 45
0.0
1001
ACAD
1000
AcDbSavedByObjectVersion
1070
     0
  0
VISUALSTYLE
  5
2E
102
{ACAD_REACTORS
330
2A
102
}
330
2A
100
AcDbVisualStyle
  2
GouraudWithEdges
 70
     3
 71
     2
 72
     2
 73
     1
 90
        2
 40
-0.6
 41
30.0
 62
     5
 63
     7
421
 16777215
 74
     1
 91
        4
 64
     7
 65
   257
 75
     1
175
     1
 42
1.0
 92
        0
 66
   257
 43
1.0
 76
     1
 77
     6
 78
     2
 67
     7
 79
     5
170
     0
171
     0
290
     0
174
     0
 93
       13
 44
0.0
173
     0
291
     1
 45
0.0
1001
ACAD
1000
AcDbSavedByObjectVersion
1070
     0
  0
VISUALSTYLE
  5
38
102
{ACAD_REACTORS
330
2A
102
}
330
2A
100
AcDbVisualStyle
  2
Linepattern
 70
    14
 71
     2
 72
     2
 73
     0
 90
        0
 40
-0.6
 41
-30.0
 62
     5
 63
     7
421
 16777215
 74
     1
 91
        4
 64
     7
 65
   257
 75
     7
175
     7
 42
1.0
 92
        8
 66
     7
 43
1.0
 76
     1
 77
     6
 78
     2
 67
     7
 79
     5
170
     0
171
     0
290
     0
174
     0
 93
        1
 44
0.0
173
     0
291
     1
 45
0.0
1001
ACAD
1000
AcDbSavedByObjectVersion
1070
     0
  0
VISUALSTYLE
  5
33
102
{ACAD_REACTORS
330
2A
102
}
330
2A
100
AcDbVisualStyle
  2
Realistic
 70
     8
 71
     2
 72
     2
 73
     0
 90
        0
 40
-0.6
 41
-30.0
 62
     5
 63
     7
421
 16777215
 74
     1
 91
        0
 64
     7
 65
   257
 75
     1
175
     1
 42
1.0
 92
        8
 66
     8
424
  7895160
 43
1.0
 76
     1
 77
     6
 78
     2
 67
     7
 79
     5
170
     0
171
     0
290
     0
174
     0
 93
       13
 44
0.0
173
     0
291
     0
 45
0.0
1001
ACAD
1000
AcDbSavedByObjectVersion
1070
     0
  0
VISUALSTYLE
  5
37
102
{ACAD_REACTORS
330
2A
102
}
330
2A
100
AcDbVisualStyle
  2
Thicken
 70
    13
 71
     2
 72
     2
 73
     0
 90
        0
 40
-0.6
 41
-30.0
 62
     5
 63
     7
421
 16777215
 74
     1
 91
        4
 64
     7
 65
   257
 75
     1
175
     1
 42
1.0
 92
       12
 66
     7
 43
1.0
 76
     1
 77
     6
 78
     2
 67
     7
 79
     5
170
     0
171
     0
290
     0
174
     0
 93
        1
 44
0.0
173
     0
291
     1
 45
0.0
1001
ACAD
1000
AcDbSavedByObjectVersion
1070
     0
  0
ENDSEC
  0
EOF
